» » »

Cky Thing- No Title Yet Bass tabs (ver.1)

Artists:  A B C D E F G H I J K L M N O P Q R S T U V W X Y Z # 

Cky Thing- No Title Yet Bass tabs (ver.1)

Garage Boy Mafia
Rating:
0/5 (0 votes)

Hard to play? Try these video lessons and learn fast.
                Garage Boy Mafia
"CKY Thing/Alk3"
GBM Demo (No Title Yet)

Intro
G|-----2-3-2------------------------|
D|-0-3-------3-2-0------------------|
A|-----------------1-1-1-1-3-3-3-3--|
E|----------------------------------|

G|-----2-3-2------------------------|
D|-0-3-------3-2-0------------------|
A|-----------------1-1-1-1----------|
E|-------------------------3-3-3-3--|

G|-----2-3-2------------------------|
D|-0-3-------3-2-0------------------|
A|-----------------1-1-1-1-5-5-3-3--|
E|----------------------------------|

G|-----2-3-2------------------------|
D|-0-3-------3-2-0------------------|
A|-----------------1-1-1-1----------|
E|-------------------------3-3-3-3--|


Verse
G|-----3-3-2-3-2------5-5-3-2-2-----|
D|-0-0------------0-0---------------|
A|----------------------------------|
E|----------------------------------|x3

G|-----3-3-2-3-2-2-2-2-----------------|
D|-0-0-----------------3-3-3-3-2-2-2-2-|
A|-------------------------------------|
E|-------------------------------------|x1


NO CHORUS YET!
Bridge
G|----------------------------------|
D|----------------------------------|
A|--(SOON 2 COME)-------------------|
E|----------------------------------|
            
Hard to play? Try these video lessons and learn fast. | Correct




comments powered by Disqus
↑ Back to top | Tablatures and chords are parodies/interpretations of the original songs. You may use it for private study, scholarship, research or language learning purposes only