» » »

Garage Boy Mafia, Badge And Sirens Bass tabs (ver.1)

Artists:  A B C D E F G H I J K L M N O P Q R S T U V W X Y Z # 

Badge And Sirens Bass tabs (ver.1)

Garage Boy Mafia Tabs
Rating:
0/5 (0 votes)
Badge And Sirens lessons Tabs too difficult? Try these video lessons and learn fast
                Garage Boy Mafia
"Badge and Sirens"
GBM Demo (No Title Yet)

Intro/Bridge
G|----------------------------------|
D|----------------------------------|
A|-3h4-4-4--------------------------|
E|---------4-4-4-4-4h5-5-5-2-2-2-2--|

Verse
G|----------------------------------|
D|-----------------------------4h6--|
A|-4-4-4-4-4-4-4-4-4-4-4-4-4-4------|
E|----------------------------------|

G|----------------------------------|
D|---------------6------------------|
A|---------6-----------6------------|
E|-4-4-4-4---4-4---4-4---4-4-4-4-4--|

G|----------------------------------|
D|----------------------------------|
A|------------7-5-7-----------------|
E|-5-5-5-5-7--------5-5-5-5-5-5-5-5-|

G|-----------------------------------|
D|-----------------------------------|
A|------------------2----------------|
E|-2-2-2-2-2b-2-2-2---2-2-2-2b-2-2-2-|

Chorus
G|----------------------------------|
D|----------------------------------|
A|---------4-4-4-4-5-5-5-5----------|
E|-2-2-2-2-----------------5-5-5-5--|

THE SECOND VERSE WILL BE DIFFERENT, BUT I HVENT WRITTEN IT YET!
            

comments powered by Disqus
↑ Back to top | Garage Boy Mafia Bass for Badge And Sirens. Lyrics for acoustic guitar and electric guitar. Tablatures and chords are parodies/interpretations of the original songs. You may use it for private study, scholarship, research or language learning purposes only