>
 >
Yearning For Your Love

Yearning For Your Love Guitar Tabs

Gap Band - Yearning For Your Love chords, tabs, tablatures, lyrics

Guitar lessons | Add/correct | Request | Top 50 tabs Artists:  A B C D E F G H I J K L M N O P Q R S T U V W X Y Z 0-9

Yearning For Your Love Guitar Tabs – Gap Band

CD, Sheet music, Poster

Do you like Yearning For Your Love? Share with your friends now
Tabs
#------------------------------------------------------------------------------##

                             YEARNING FOR YOUR LOVE
                             As recorded by Gap Band


          Em9                B9sus4             Bm7(type 2)            C#m7b5
      x 7 5 7 7 7          7 x 7 6 5 5          7 x 7 7 7 7          9 x 9 9 8 x

      F#7+9+5VII              Gmaj7                F#m7                A9sus4
     x 9 8 7 10 0         x 10 9 7 7 7         x 9 11 9 10 9         5 x 5 4 3 3

           A                   Bm7                Bbmaj7                C7/Bb
      5 x 7 6 5 5          7 9 7 7 7 7          x x 8 7 6 5          x x 8 9 8 8

          Am7                D9sus4                 F/C                 Bm7b5
      5 7 5 5 8 5          x 5 5 5 5 5          8 x 7 5 6 5          7 x 7 7 6 x

         E7+9              Am7(type 2)            C13sus4               Amaj9
      x 7 6 7 8 x          5 7 5 5 5 5          8 x 8 7 6 5          x 0 6 6 0 0

Gtr I (E A D G B E) - 'Untitled'

    Q=82
    Em9                                                B9susBm7B9suEm9)
    Gtr I
    S S  S S S S S S S S S S S S S S   S S S S S S S S E.   S  E   E  4x
||-----------------------------------|--------------------------------||
||o-x-x--5-7-5-7-x-x-5-7-5-7-x-x-5-7-|-x-x-5-7-5-7---x-5----7--5---7-o||
||--x-x--6-7-6-7-x-x-6-7-6-7-x-x-6-7-|-x-x-6-7-6-7---x-6----7--6---7--||
||--x-x--7-7-7-7-x-x-7-7-7-7-x-x-7-7-|-x-x-7-7-7-7---x-7----7--7---7--||
||o----------------------------------|-------------------------------o||
||-----------------------------------|--------------------------------||


    Em9
    S S  S  S S S S S S S S S S S S S
||------------------------------------|
||o-x-x--5--7-5-7---x-5-7---7-x-7-5-7-|
||--x-x--6--7-6-7---x-6-7---7-x-7-6-7-|
||--x-x--7--7-7-7---x-7-7---7-x-7-7-7-|
||o-----------------------------------|
||------------------------------------|


                       B9sus4Bm7(tB9suEm9
  S S  S  S  S  S S S  E.    S    E   E         S S  S  S S S S S S S S S +E   E
|---------------------------------------------|-----------------------------------|
|-x-x--5--7--5--7---x--5-----7----5---7-------|-x-x--5--7-5-7-x-x-5-7-x-5-(5)--3--|
|-x-x--6--7--6--7---x--6-----7----6---7-------|-x-x--6--7-6-7-x-x-6-7-x-6-(6)--4--|
|-x-x--7--7--7--7---x--7-----7----7---7-------|-x-x--7--7-7-7-x-x-7-7-------------|
|---------------------------------------------|-----------------------------------|
|---------------------------------------------|-----------------------------------|


  C#m7bF#7+9+Gmaj7                                F#m7    B9sus4
  H     Q.    E    +Q    E E +Q   S S S S   +S  S E E S S  E E  E E
|-------0-----7-|--(7)--------------------|-------------------------|
|-8----10-----7-|--(7)--------------------|-------------------------|
|-9-----7-----7-|--(7)---9-7-(7)--6-7-6-6-|-(6)-6-6--------9-7--9-7-|
|-9-----8-----9-|--(9)--11-9-(9)--7-9-7-7-|-(7)-7-7---7-9-11-9-11-9-|
|-------9----10-|-(10)--------------------|-------9---------------7-|
|-9-------------|-------------------------|-------------------------|


  Em9                         A9sAs4A9sAs4
  +E  S S S S S S S E S E E   Q  Q  Q  Q
|-----7-x-x-7-x-x-7---7-7-7-|---------------|
|-----7-x-x-7-x-x-7---7-7-7-|-------3--5----|
|-(7)-7-x-x-7-x-x-7---7-7-7-|-4--6--4--6----|
|-(9)-5-x-x-5-x-x-5---5-5-5-|-5--7----------|
|-(7)-7-x-x-7-x-x-7---7-7-7-|---------------|
|---------------------------|---------------|


  Em9                                                      B9sus4Bm7(tB9suEm9
  S S  S  S S S S S S S S S S S S S   S S  S  S  S  S S S  E.    S    E   E
|-----------------------------------|---------------------------------------------|
|-x-x--5--7-5-7---x-5-7---7-x-7-5-7-|-x-x--5--7--5--7---x--5-----7----5---7-------|
|-x-x--6--7-6-7---x-6-7---7-x-7-6-7-|-x-x--6--7--6--7---x--6-----7----6---7-------|
|-x-x--7--7-7-7---x-7-7---7-x-7-7-7-|-x-x--7--7--7--7---x--7-----7----7---7-------|
|-----------------------------------|---------------------------------------------|
|-----------------------------------|---------------------------------------------|


  S S  S  S S S S S S S S S +E   E
|------------------------------------|
|-x-x--5--7-5-7-x-x-5-7-x-5-(5)--3---|
|-x-x--6--7-6-7-x-x-6-7-x-6-(6)--4---|
|-x-x--7--7-7-7-x-x-7-7--------------|
|------------------------------------|
|------------------------------------|


  C#m7bF#7+9+Gmaj7                                F#m7    B9sus4
  H     Q.    E    +Q    E E +Q   S S S S   +S  S E E S S  E E  E E
|-------0-----7-|--(7)--------------------|-------------------------|
|-8----10-----7-|--(7)--------------------|-------------------------|
|-9-----7-----7-|--(7)---9-7-(7)--6-7-6-6-|-(6)-6-6--------9-7--9-7-|
|-9-----8-----9-|--(9)--11-9-(9)--7-9-7-7-|-(7)-7-7---7-9-11-9-11-9-|
|-------9----10-|-(10)--------------------|-------9---------------7-|
|-9-------------|-------------------------|-------------------------|


  Em9                         A9sAs4A9sAs4
  +E  S S S S S S S E S E E   Q  Q  Q  Q
|-----7-x-x-7-x-x-7---7-7-7-|---------------||
|-----7-x-x-7-x-x-7---7-7-7-|-------3--5----||
|-(7)-7-x-x-7-x-x-7---7-7-7-|-4--6--4--6----||
|-(9)-5-x-x-5-x-x-5---5-5-5-|-5--7----------||
|-(7)-7-x-x-7-x-x-7---7-7-7-|---------------||
|---------------------------|---------------||


  F#m7  Bm7        F#m7Bm7  B9sus4
   Q.   S S H       Q  S E. E.  S E E
|--9----7--------|--9--7----5---7-5-7-|
|-10----7--------|-10--7----5---7-5-7-|
|--9----7--------|--9--7----6---7-6-7-|
|-11----7--------|-11--7----7---7-7-5-|
|--9----9--------|--9--9--------------|
|-------7--------|-----7----7---7-7-7-|


  Em9                         A9sAs4A9sAs4
  +E  S S S S S S S E S E E   Q  Q  Q  Q
|-(7)-7-x-x-7-x-x-7---7-7-7-|-------------|
|-(7)-7-x-x-7-x-x-7---7-7-7-|-------3--5--|
|-(7)-7-x-x-7-x-x-7---7-7-7-|-4--6--4--6--|
|-(5)-5-x-x-5-x-x-5---5-5-5-|-5--7--------|
|-----7-x-x-7-x-x-7---7-7-7-|-------------|
|-(7)-----------------------|-------------|


  F#m7  Bm7        F#m7Bm7  B9sus4
   Q.   S S H       Q  S E. E.  S E E
|--9----7--------|--9--7----5---7-5-7-|
|-10----7--------|-10--7----5---7-5-7-|
|--9----7--------|--9--7----6---7-6-7-|
|-11----7--------|-11--7----7---7-7-5-|
|--9----9--------|--9--9--------------|
|-------7--------|-----7----7---7-7-7-|


  Em9                         A9sAs4A9sAs4
  +E  S S S S S S S E S E E   Q  Q  Q  Q
|-(7)-7-x-x-7-x-x-7---7-7-7-|--------------||
|-(7)-7-x-x-7-x-x-7---7-7-7-|-------3--5--o||
|-(7)-7-x-x-7-x-x-7---7-7-7-|-4--6--4--6---||
|-(5)-5-x-x-5-x-x-5---5-5-5-|-5--7---------||
|-----7-x-x-7-x-x-7---7-7-7-|-------------o||
|-(7)-----------------------|--------------||


  BbmajC7/Bb  Am7  D9susF/C    Bm7b5E7+9   Am7(tC13sAm7(type 2)
  H    H      Q.   Q.    Q     H    H      H    Q   Q
|-5----8----|-5----5----(5)--|-----------|-5----5---5---|
|-6----8----|-8----5-----6---|-6----8----|-5----6---5---|
|-7----9----|-5----5----(5)--|-7----7----|-5----7---5---|
|-8----8----|-5----5-----7---|-7----6----|-5----8---5---|
|-----------|-7--------------|------7----|-7--------7---|
|-----------|-5----------8---|-7---------|-5----8---5---|


  Bbmaj7 C7/BbAm7  D9susF/C    Bm7b5E7+9   Amaj9
  H    H      Q.   Q.    Q     H    H       H     H           W
|-5----8----|-5----5----(5)--|-----------|-!0----!0--------|-^0----*|
|-6----8----|-8----5-----6---|-6----8----|-!0----!0--------|-^0----*|
|-7----9----|-5----5----(5)--|-7----7----|-!6----!6--------|-^6----*|
|-8----8----|-5----5-----7---|-7----6----|-!6----!6--------|-^6----*|
|-----------|-7--------------|------7----|-!0----!0--------|-^0----*|
|-----------|-5----------8---|-7---------|-----------------|-------*|


    Em9                                                    B9susBm7B9suEm9)
    Gtr I
    S  S   S S S S S S S S S S S S S S   S  S  S S S S S S E.   S  E   E  4x
||-------------------------------------|----------------------------------||
||o-x--x---5-7-5-7-x-x-5-7-5-7-x-x-5-7-|-x--x--5-7-5-7---x-5----7--5---7-o||
||--x--x---6-7-6-7-x-x-6-7-6-7-x-x-6-7-|-x--x--6-7-6-7---x-6----7--6---7--||
||--x--x---7-7-7-7-x-x-7-7-7-7-x-x-7-7-|-x--x--7-7-7-7---x-7----7--7---7--||
||o-7-(7)------------------------------|-7-(7)---------------------------o||
||--0-(0)------------------------------|-0-(0)----------------------------||


Duration Legend
---------------
W - whole; H - half; Q - quarter; E - 8th; S - 16th; T - 32nd; X - 64th; a - acciaccatura
+ - note tied to previous; . - note dotted; .. - note double dotted
Uncapitalized letters represent notes that are staccato (1/2 duration)
Irregular groupings are notated above the duration line
Duration letters will always appear directly above the note/fret number it represents the
duration for.  Duration letters with no fret number below them represent rests.  Multi-
bar rests are notated in the form Wxn, where n is the number of bars to rest for.  Low
melody durations appear below the staff

Tablature Legend
----------------
 h   - hammer-on
 p   - pull-off
 b   - bend
 pb  - pre-bend
 r   - bend release (if no number after the r, then release immediately)
 /\  - slide into or out of (from/to "nowhere")
 s   - legato slide
 S   - shift slide
  - natural harmonic
[n]  - artificial harmonic
n(n) - tapped harmonic
 ~   - vibrato
 tr  - trill
 T   - tap
 TP  - trem. picking
 PM  - palm muting
\n/  - tremolo bar dip; n = amount to dip
 \n  - tremolo bar down
 n/  - tremolo bar up
/n\  - tremolo bar inverted dip
 =   - hold bend; also acts as connecting device for hammers/pulls
 <>  - volume swell (louder/softer)
 x   - on rhythm slash represents muted slash
 o   - on rhythm slash represents single note slash

Misc Legend
-----------
 |  - bar
||  - double bar
||o - repeat start
o|| - repeat end
*|  - double bar (ending)
 :  - bar (freetime)
 $  - Segno
 &  - Coda
Tempo markers -  = BPM(8/16=s8/s16), where s8 = swing 8ths, s16 = swing 16ths


***************************************************************************************
***************************************************************************************





Comments


Popular Gap Band tabs & chords
Burn Rubber On Me Bass Tabs
You Dropped A Bomb Bass Tabs
Goin In Circles Chords
Party Train Chords
You Dropped A Bomb On Me Chords
Burn Rubber On Me Tabs
Goin In Circles Ukulele
Party Train Ukulele
You Dropped A Bomb On Me Ukulele


Song lyrics



↑ Back to top | Tablatures and chords are parodies/interpretations of the original songs. You may use it for private study, scholarship, research or language learning purposes only
© 2014 AZChords.com Contact us | Privacy policy | DMCA | Add/correct tabs | Request tabs | Top 50 tabs