» » »

Woman Town Tabs (ver.1)

Artists:  A B C D E F G H I J K L M N O P Q R S T U V W X Y Z # 

Woman Town Tabs (ver.1)

Gang Of Four
Rating:
0/5 (0 votes)

Hard to play? Try these video lessons and learn fast.
                Intro -

--------------------------------------|
--------------------------------------|
4-------------------------2-----------|
-----4---2-4------------------4-2-----|
--------------------------------------|
--------------------------------------|


Main part (throw in a few harmonics, open strings and stuff
here and there) -

--------------------------------------|
--------------5-5---------------------|
44--4--4-4--4-----4-22--2--2-2--2---2-|
----------------------------------4---|
--------------------------------------|
--------------------------------------|

"Solo", for the x's, feel free to do harmonics
where ever you feel like it


--x-x------------x-x----------|
--x-x------------x-x----------|
--x-x-0h2--2-0---x-x-0h2--2-0-|
--x-x------------x-x----------|
2-x-x----------2-x-x----------|
0-x-x----------0-x-x----------|

--x-x-x-x-x-x----x-x----------|
--x-x-x-x-x-x----x-x----------|
--x-x-x-x-x-x0---x-x-0h2--2-0-|
--x-x-x-x-x-x----x-x----------|
2-x-x-x-x-x-x--2-x-x----------|
0-x-x-x-x-x-x--0-x-x----------|


--x-x------------x-x-----------|
--x-x------------x-x-----------|
--x-x-0h2--2-0---x-x-----0-2-0-|
--x-x------------x-x-----------|
2-x-x----------2-x-x-----------|
0-x-x----------0-x-x-----------|


2--2--2--2--2--2--2--2--2--2--|
3--3--3--3--3--3--3--3--3--3--|
2--2--2--2--2--2--2--2--2--2--|
------------------------------|
------------------------------|
------------------------------|

Back to the main part.

There's some variations and stuff but nothing too difficult.
            
Hard to play? Try these video lessons and learn fast. | Correct




comments powered by Disqus
↑ Back to top | Tablatures and chords are parodies/interpretations of the original songs. You may use it for private study, scholarship, research or language learning purposes only