» » »

I Love A Man In A Uniform Remix Bass tabs (ver.1)

Artists:  A B C D E F G H I J K L M N O P Q R S T U V W X Y Z # 

I Love A Man In A Uniform Remix Bass tabs (ver.1)

Gang Of Four
Rating:
0/5 (0 votes)

Hard to play? Try these video lessons and learn fast.
                ------------------------------------------------------|
------------------------------------------------------|
-------------------3-3--------------------------------|
-----5---5-----5-5-----3-3-5--------------------------|

------------------------------------------------------|
------------------------------------------------------|
--7-----7---------5-5-7-------------------------------|
--------------7-7-------------------------------------|

------------------------------------------------------|
------------------------------------------------------|
--7-----7---------5-5--5----5----5-5-----8-8-10-10----|
--------------7-7-------------------------------------|

------------------------------------------------------|
------------------------------------------------------|
------8---8------8-8-8-(10)-8-------------------------|
------------------------------------------------------|

Just mix up these parts and there's the song! Try and improvise some of your own. The 
is perfect to practise that.
            
Hard to play? Try these video lessons and learn fast. | Correct




comments powered by Disqus
↑ Back to top | Tablatures and chords are parodies/interpretations of the original songs. You may use it for private study, scholarship, research or language learning purposes only