» » »

Gang Of Four, I Found That Essence Rare Tabs (ver.1)

Artists:  A B C D E F G H I J K L M N O P Q R S T U V W X Y Z # 

I Found That Essence Rare Tabs (ver.1)

Gang Of Four Tabs
 Rating:
4.3/5 (6 votes)
I Found That Essence Rare lessons Tabs too difficult? Try these video lessons and learn fast
1
                -------------------------------------------------------------------------------
-------------------------------------------------------------------------------

Tuning: Standard


Intro:
                   x8
e|-----------------||-------------------------|----------------------|-----------12-12-12-12-|
B|-----------------||-------------------------|------------------b10-|-----------12-12-12-12-|
G|-----7-------7---||-X-X-9-X-X-9-9-9-9-7-7-9-|-9-X-9-9-9----7-9-----|-9-X-X-9-9-9--9--9--9--|
D|---7---7---7---7-||-X-X-9-X-X-9-9-9-9-7-7-9-|-9-X-9-9-9-7-9--------|-9-X-X-9-9-9--9--9--9--|
A|-5-------5-------||-X-X-7-X-X-7-7-7-7-5-5-7-|-7-X-7-7-7------------|-7-X-X-9-9-------------|
E|-----------------||-------------------------|----------------------|-----------------------|

e|---------------------|
B|---------------------|
G|-9-X-X-9-9-7-9-7-9-9-|
D|-9-X-X-9-9-7-9-7-9-9-|
A|-7-X-X-7-7-5-7-5-7-7-|
E|---------------------|

Chorus 1:

e|-----------------|-----------------------|-------------------|------------------------------|
B|-----------------|-----------------------|-------------------|------------------------------|
G|---------7-7-7-7-|-X-X-9-X-X-9-9-X-9-X-9-|-5-5-5-5-4-4-4-4-4-|---------------11-11-11-11-11-|
D|-7-7-7-7-7-7-7-7-|-X-X-9-X-X-9-9-X-9-X-9-|-5-5-5-5-4-4-4-4-4-|-4-4-4-4-2-4---11-11-11-11-11-|
A|-7-7-7-7-5-5-5-5-|-X-X-7-X-X-7-7-X-7-X-7-|-3-3-3-3-2-2-2-2-2-|-4-4-4-4-2-4-9-9--9--9--9--9--|
E|-5-5-5-5---------|-----------------------|-------------------|-2-2-2-2-0-2------------------|

Verse 1:

e|-----------------------------|-----------------------------|
B|-----------------------------|-------------------8---8-b10-|
G|-X-X-9-X-X-9-9-X-X-9-X-X-9-9-|-X-X-9-X-X-9---7-9---9-------|
D|-X-X-9-X-X-9-9-X-X-9-X-X-9-9-|-X-X-9-X-X-9-9---------------|
A|-X-X-7-X-X-7-7-X-X-7-X-X-7-7-|-X-X-7-X-X-7-----------------|
E|-----------------------------|-----------------------------|

e|-----------------------------|---------------------------|
B|-----------------------------|---------------------------|
G|-X-X-9-X-X-9-9-X-X-9-X-X-9-9-|-X-X-9-X-X-9---7-9-7-9-7-9-|
D|-X-X-9-X-X-9-9-X-X-9-X-X-9-9-|-X-X-9-X-X-9-9-------------|
A|-X-X-7-X-X-7-7-X-X-7-X-X-7-7-|-X-X-7-X-X-7---------------|
E|-----------------------------|---------------------------|

e|-----------------------------|----------------12-12-12-12-12-|
B|-----------------------------|----------------12-12-12-12-12-|
G|-X-X-9-X-X-9-9-X-X-9-X-X-9-9-|-X-X-9-X-X-9----9--9--9--9--9--|
D|-X-X-9-X-X-9-9-X-X-9-X-X-9-9-|-X-X-9-X-X-9-b9-9--9--9--9--9--|
A|-X-X-7-X-X-7-7-X-X-7-X-X-7-7-|-X-X-7-X-X-7-------------------|
E|-----------------------------|-------------------------------|

e|-----------------------------|-----------------------|
B|-----------------------------|-----------------------|
G|-X-X-9-X-X-9-9-X-X-9-X-X-9-9-|-X-X-9-X-X-9-9-9-9-9-9-|
D|-X-X-9-X-X-9-9-X-X-9-X-X-9-9-|-X-X-9-X-X-9-9-9-9-9-9-|
A|-X-X-7-X-X-7-7-X-X-7-X-X-7-7-|-X-X-7-X-X-7-7-7-7-7-7-|
E|-----------------------------|-----------------------|

Chorus 2:

e|-----------------|-----------------------|-------------------|------------------------------|
B|-----------------|-----------------------|-------------------|------------------------------|
G|---------7-7-7-7-|-X-X-9-X-X-9-9-X-9-X-9-|-5-5-5-5-4-4-4-4-4-|---------------11-11-11-11-11-|
D|-7-7-7-7-7-7-7-7-|-X-X-9-X-X-9-9-X-9-X-9-|-5-5-5-5-4-4-4-4-4-|-4-4-4-4-2-4---11-11-11-11-11-|
A|-7-7-7-7-5-5-5-5-|-X-X-7-X-X-7-7-X-7-X-7-|-3-3-3-3-2-2-2-2-2-|-4-4-4-4-2-4-9-9--9--9--9--9--|
E|-5-5-5-5---------|-----------------------|-------------------|-2-2-2-2-0-2------------------|

Verse 2:

e|-----------------------------|-------------------------|
B|-----------------------------|-------------------------|
G|-X-X-9-X-X-9-9-X-X-9-X-X-9-9-|-X-X-9-X-X-9---7-9-9-9-9-|
D|-X-X-9-X-X-9-9-X-X-9-X-X-9-9-|-X-X-9-X-X-9-9-----------|
A|-X-X-7-X-X-7-7-X-X-7-X-X-7-7-|-X-X-7-X-X-7-------------|
E|-----------------------------|-------------------------|

e|-----------------------------|---------------------------|
B|-----------------------------|---------------------------|
G|-X-X-9-X-X-9-9-X-X-9-X-X-9-9-|-X-X-9-X-X-9---7-9-7-9-7-9-|
D|-X-X-9-X-X-9-9-X-X-9-X-X-9-9-|-X-X-9-X-X-9-9-------------|
A|-X-X-7-X-X-7-7-X-X-7-X-X-7-7-|-X-X-7-X-X-7---------------|
E|-----------------------------|---------------------------|

e|-----------------------------|---------------------------|
B|-----------------------------|---------------------------|
G|-X-X-9-X-X-9-9-X-X-9-X-X-9-9-|-X-X-9-X-X-9---7-9-7-9-7-9-|
D|-X-X-9-X-X-9-9-X-X-9-X-X-9-9-|-X-X-9-X-X-9-9-------------|
A|-X-X-7-X-X-7-7-X-X-7-X-X-7-7-|-X-X-7-X-X-7-7-------------|
E|-----------------------------|---------------------------|

e|-----------------------------|-------------s12-12-12-12---|
B|-----------------------------|----------------------------|
G|-X-X-9-X-X-9-9-X-X-9-X-X-9-9-|-X-X-9-X-X-9----------------|
D|-X-X-9-X-X-9-9-X-X-9-X-X-9-9-|-X-X-9-X-X-9--------------9-|
A|-X-X-7-X-X-7-7-X-X-7-X-X-7-7-|-X-X-7-X-X-7--------------7-|
E|-----------------------------|----------------------------|

Chorus 3:

e|-----------------|-----------------------|-------------------|-------------------------|
B|-----------------|-----------------------|-------------------|-------------------------|
G|---------7-7-7-7-|-X-X-9-X-X-9-9-X-9-X-9-|-5-5-5-5-4-4-4-4-4-|-------------------------|
D|-7-7-7-7-7-7-7-7-|-X-X-9-X-X-9-9-X-9-X-9-|-5-5-5-5-4-4-4-4-4-|-4-4-4-4-2-4-4-4-4-4-4-4-|
A|-7-7-7-7-5-5-5-5-|-X-X-7-X-X-7-7-X-7-X-7-|-3-3-3-3-2-2-2-2-2-|-4-4-4-4-2-4-4-4-4-4-4-4-|
E|-5-5-5-5---------|-----------------------|-------------------|-2-2-2-2-0-2-2-2-2-2-2-2-|

Bridge:

Play E chord (X799XX) and let feedback from chord ring for 4 bars

Chorus 4:

e|-----------------|-----------------------|-------------------|------------------------------|
B|-----------------|-----------------------|-------------------|------------------------------|
G|---------7-7-7-7-|-X-X-9-X-X-9-9-X-9-X-9-|-5-5-5-5-4-4-4-4-4-|---------------11-11-11-11-11-|
D|-7-7-7-7-7-7-7-7-|-X-X-9-X-X-9-9-X-9-X-9-|-5-5-5-5-4-4-4-4-4-|-4-4-4-4-2-4---11-11-11-11-11-|
A|-7-7-7-7-5-5-5-5-|-X-X-7-X-X-7-7-X-7-X-7-|-3-3-3-3-2-2-2-2-2-|-4-4-4-4-2-4-9-9--9--9--9--9--|
E|-5-5-5-5---------|-----------------------|-------------------|-2-2-2-2-0-2------------------|

Verse 4:

e|-----------------------------|---------------------------|
B|-----------------------------|---------------------------|
G|-X-X-9-X-X-9-9-X-X-9-X-X-9-9-|-X-X-9-X-X-9---------------|
D|-X-X-9-X-X-9-9-X-X-9-X-X-9-9-|-X-X-9-X-X-9---------------|
A|-X-X-7-X-X-7-7-X-X-7-X-X-7-7-|-X-X-7-X-X-7--------/9-9-7-|
E|-----------------------------|-------------7-9-10--------|

e|-----------------------------|---------------------------|
B|-----------------------------|---------------------------|
G|-X-X-9-X-X-9-9-X-X-9-X-X-9-9-|-X-X-9-X-X-9---------------|
D|-X-X-9-X-X-9-9-X-X-9-X-X-9-9-|-X-X-9-X-X-9---------------|
A|-X-X-7-X-X-7-7-X-X-7-X-X-7-7-|-X-X-7-X-X-7--------/9-9-7-|
E|-----------------------------|-------------7-9-10--------|

e|-----------------------------|---------------------------|
B|-----------------------------|---------------------------|
G|-X-X-9-X-X-9-9-X-X-9-X-X-9-9-|-X-X-9-X-X-9---------------|
D|-X-X-9-X-X-9-9-X-X-9-X-X-9-9-|-X-X-9-X-X-9---------------|
A|-X-X-7-X-X-7-7-X-X-7-X-X-7-7-|-X-X-7-X-X-7--------/9-9-7-|
E|-----------------------------|-------------7-9-10--------|

e|-----------------------------|---------------------|
B|-----------------------------|---------------------|
G|-X-X-9-X-X-9-9-X-X-9-X-X-9-9-|-X-9-9-9-9-9-9-7-9-7-|
D|-X-X-9-X-X-9-9-X-X-9-X-X-9-9-|-X-9-9-9-9-9-9-7-9-7-|
A|-X-X-7-X-X-7-7-X-X-7-X-X-7-7-|-X-7-7-7-7-7-7-5-7-5-|
E|-----------------------------|---------------------|

Chorus 5:

e|-----------------|-----------------------|-------------------|------------------------------|
B|-----------------|-----------------------|-------------------|------------------------------|
G|---------7-7-7-7-|-X-X-9-X-X-9-9-X-9-X-9-|-5-5-5-5-4-4-4-4-4-|---------------11-11-11-11-11-|
D|-7-7-7-7-7-7-7-7-|-X-X-9-X-X-9-9-X-9-X-9-|-5-5-5-5-4-4-4-4-4-|-4-4-4-4-2-4---11-11-11-11-11-|
A|-7-7-7-7-5-5-5-5-|-X-X-7-X-X-7-7-X-7-X-7-|-3-3-3-3-2-2-2-2-2-|-4-4-4-4-2-4-9-9--9--9--9--9--|
E|-5-5-5-5---------|-----------------------|-------------------|-2-2-2-2-0-2------------------|

Outro:

e|-----------------|--------------|-----------------|-----------------------|---------------------|
B|-----------------|--------------|-----------------|-----------------------|---------------------|
G|-X--99--9--99--9-|-99--9--99--9-|---------7-7-7-7-|-X-X-9-X-X-9-9-X-9-X-9-|-5-5-5-5-4-4-4-4-4-2-|
D|-X--99--9--99--9-|-99--9--99--9-|-7-7-7-7-7-7-7-7-|-X-X-9-X-X-9-9-X-9-X-9-|-5-5-5-5-4-4-4-4-4-2-|
A|-X--77--7--77--7-|-77--7--77--7-|-7-7-7-7-5-5-5-5-|-X-X-7-X-X-7-7-X-7-X-7-|-3-3-3-3-2-2-2-2-2-0-|
E|-----------------|--------------|-5-5-5-5---------|-----------------------|---------------------|


************************************

| /   slide up
| \   slide down
| h   hammer-on
| p   pull-off
| ~   vibrato
| +   harmonic
| x   Mute note
| b   Bend
| pb  Pre-bend
| br  Bend release
| pbr Pre-bend release
| brb Bend release bend

************************************

Verse:

E
Aim for the body rare, you'll see it on TV
E
The worst thing in 1954 was the Bikini
E
See the girl on the TV dressed in a Bikini
E
She doesn't think so but she's dressed for the H-Bomb
(For the H-Bomb)

Chorus:

A            D                         E
I found that essence rare, it's what I looked for
C          B                    F#     E F#
I knew I'd get what I asked for

Aim for the country fair you read it in the paper
The worst thing happens any week a scandal on the front page
See the happy pair smiling close like they are monkeys
They wouldn't think so but they're holding themselves down
(Hold themselves down)

I found that essence rare, it's what I looked for
I knew I'd get what I asked for

I found that essence rare, it's what I looked for
I knew I'd get what I asked for

Aim for politicians fair who'll treat your vote hope well
The last thing they'll ever do act in your interest
Look at the world through your polaroid glasses
Things'll look a whole lot better for the working classes
(Working classes)

I found that essence rare, it's what I looked for
I knew I'd get what I asked for

I found that essence rare, it's what I looked for
I knew I'd get what I asked for
            
Submit corrections

comments powered by Disqus
↑ Back to top | Gang Of Four Tabs for I Found That Essence Rare. Lyrics for acoustic guitar and electric guitar. 1 Tablatures and chords are parodies/interpretations of the original songs. You may use it for private study, scholarship, research or language learning purposes only