» » »

Ether Remix Bass tabs (ver.1)

Artists:  A B C D E F G H I J K L M N O P Q R S T U V W X Y Z # 

Ether Remix Bass tabs (ver.1)

Gang Of Four
Rating:
0/5 (0 votes)

Hard to play? Try these video lessons and learn fast.
                ----------5----------------5----------5----------|
----------5----------------5----------5----------|
-------------------------------------------------|
---5-5-5-----5-5-5---5-5-5----5-55-55------------|
				Stutterpart

-----------------------------------|
-----------------------------------|
-----------------------------------|
---5-5-----5-5------5-5-----5-5----|

----------------------------------------|
---0-0-----0-0------0-0-----0-0--0-0----|
----------------------------------------|
----------------------------------------|

-----------------------------------|
-----------------------------------|
-12-12--10-10--8-8--7-7------------|
-----------------------------------|

-----------------------------------|
-----------------------------------|
----------3-5-7--------------------|
---5-5--5------5-------------------|

-----------------------------------|
-----------------------------------|
----------3-5-7---7-5-3-5----------|
---5-5--5-----------------5--------|


----------5-----------------5----------5-----------|
----------5-----------------5----------5-----------|
---------------------------------------------------|
---5-5-5-----5-5-5-7~--5-5-5----5-55-55------------|
or something like that

Its not exact but you should be able to play most of the song now.
Come up with some of your own variations to spice it up. k?
            
Hard to play? Try these video lessons and learn fast. | Correct




comments powered by Disqus
↑ Back to top | Tablatures and chords are parodies/interpretations of the original songs. You may use it for private study, scholarship, research or language learning purposes only