» » »

Damaged Goods Bass tabs (ver.2)

Artists:  A B C D E F G H I J K L M N O P Q R S T U V W X Y Z # 

Damaged Goods Bass tabs (ver.2)

Gang Of Four
Rating:
4/5 (1 vote)

Hard to play? Try these video lessons and learn fast.
                Gang of Four
Damaged Goods
Standard Tuning (EADG)
Bass Tab by Berbs

Legend:
\ Slide down
/ Slide up
po: Pull off
h: Hammer on

I saw that all the tabs for this song were way off so I threw this together. 
Also, I'm new at this, so if it sounds off rhythmically, listen to the song to get it down.
This is essentially 100% correct, listen HARD. 


Intro (There is a distinct slide!):

G|-------------------------------------------------------------------------------------------|
D|-------------------------------------------------------------------------------------------|
A|----7-7---7-7---7-7---7-7\3-3---3-3---3-3---3-3/7-7---7-7---7-7---7-7\3-3---3-3---3-3---3-3|
E|-------------------------------------------------------------------------------------------|


Series 1:

G|--------------------------------------------------------------------|
D|--------------------6-7-9--10-10-10---------10--10-10-10-10---------|
A|/7-7---7-7---7--7-7----------------10---10-----------------10-10-10-|
E|--------------------------------------8-----------------------------|

Goes right into Series 2:

G|----------------------------9(7*)9--------------------------------------------------|
D|---------------------------------------------------------10-10--10------------------|
A|----7-7---7--7-7---7--7-7---------7--10----------------------------10--10-10--------|
E|--8--------------------------------------8-8---8--8-8--8----------------------8-----|

That (7*) is really quick, but it's not a pull off, you have to pluck it to make it sound right.

Then Series 1 x1
Then Series 2 x2

Then play a 7 on the A String, which goes into a break.

Then after the break:

Series 1 x2 
Series 2 x1

Then into Series 3:

G|----------------9---9---------------------------------------|
D|---------------------------------------10-10--10------------|
A|--7-7---7-7---7-------7---------------------------10-10-----|
E|-------------------------8-8---8-8---8------------------8---|

Play this once more!

Then right into:

Series 1 x1
Series 2 x1
Series 3 x1
Series 1 x1

Then another 7 on the A string into the second break. After the break:

Series 1 x1
Series 2 x1
Series 1 x1
Series 2 x1

Then into the final break. Then 

Series 4:

G|--------------------------------------------------------------------|
D|-----------------------6-7-9--10-10-10---------10--10-10-10---------|
A|--5-7--5-7--5-7--5-7-------------------10---10--------------10-10---|
E|------------------------------------------8-----------------------8-|

Play it 4 more times!

Then

The Outro:

G|--------------------------|
D|--------------------------|
A|---7-7---7-7---7-7---7-7--|
E|--------------------------|


That's it! It's not that hard, but it's mad fun to play and jam to!
Enjoy this awesome song!
            
Hard to play? Try these video lessons and learn fast. | Correct




comments powered by Disqus
↑ Back to top | Tablatures and chords are parodies/interpretations of the original songs. You may use it for private study, scholarship, research or language learning purposes only