» » »

Gang Of Four, Damaged Goods Bass tabs (ver.1)

Artists:  A B C D E F G H I J K L M N O P Q R S T U V W X Y Z # 

Damaged Goods Bass tabs (ver.1)

Gang Of Four Tabs
Rating:
4/5 (4 votes)
Damaged Goods lessons Tabs too difficult? Try these video lessons and learn fast
                -------------------------------------------------------------------------------
-------------------------------------------------------------------------------

Intro:
G|-----------------------------------|
D|-----------------------------------| x2
A|--77--77--77--77-------------------|
E|------------------88--88--88--88---|


G|--------------------------------------------------------|
D|---------------67-9-----10----------10-|10|10|10--------|
A|--77--77-7--77--------10--10----10----------------8888--|
E|--------------------8--------8--------------------------|

G|------------99------------------------------------------|
D|---------------9---9----------10-|10|10|10--------------|
A|--77--77-7-------7---------10-----------------8888------|
E|----------------------888-------------------------------|

Outro

G|----------------------------------------------------------|
D|-----------------67-9-----10----------10-|10|10|10--------| x4
A|--57--57--57--57--------10--10----10----------------8888--|
E|----------------------8--------8--------------------------|

G|-----------------|
D|-----------------|
A|--77--77--77--77-|
E|-----------------|


===============================================================================
            
Submit corrections

comments powered by Disqus
↑ Back to top | Gang Of Four Bass for Damaged Goods. Lyrics for acoustic guitar and electric guitar. Tablatures and chords are parodies/interpretations of the original songs. You may use it for private study, scholarship, research or language learning purposes only