» » »

Gang Green, Well Give It To You Tabs (ver.1)

Artists:  A B C D E F G H I J K L M N O P Q R S T U V W X Y Z # 

Well Give It To You Tabs (ver.1)

Gang Green Tabs
 Rating:
4/5 (4 votes)
Well Give It To You lessons Tabs too difficult? Try these video lessons and learn fast
                intro:
e|------------------------|-----------------|
B|------------------------|-----------------|
G|-----67-----45-----7656-|*3-then----7656--|
D|--4--67--4--45--4--7656-|--------4--7656--|
A|--4--45--4--23--4--5434-|--------4--5434--|
E|--2------2------2-------|--------2--------|
verse:
e|---------------------------------------------------------------------------------|
B|---------------------------------------------------------------------------------|
G|-----756-------------------------------------------------------------------------|
D|--4--756-------------------------------------------------------------------------|
A|--4--534-------------------------------------------------------------------------|
E|--2------------------------------------------------------------------------------|
Chorus:
e|------------------------------------------------------------------------------------|
B|------------------------------------------------------------------------------------|
G|--7--11-9-8-9-8---------------------------------------------------------------------|
D|--7--11-9-8-9-8---------------------------------------------------------------------|
A|--5--9--7-6-7-6---------------------------------------------------------------------|
E|------------------------------------------------------------------------------------|
Bridge/Breakdown:
e|----------------------------------------------------|
B|----------------------------------------------------|
G|----------------------------------------------------|
D|--1011-9-10-7-8-9-10-1011-9-10-7-7-8-9-1011-9-10-7--|
A|--1011-9-10-7-8-9-10-1011-9-10-7-7-8-9-1011-9-10-7--|
E|--8-9--7-8--5-6-7-8--8-9--7-8--5-5-6-7-8-9--7-8--5--|
            
Submit corrections

comments powered by Disqus
↑ Back to top | Gang Green Tabs for Well Give It To You. Lyrics for acoustic guitar and electric guitar. Tablatures and chords are parodies/interpretations of the original songs. You may use it for private study, scholarship, research or language learning purposes only