>
 >
Sold Out

Sold Out Bass Tabs

Gang Green - Sold Out chords, tabs, tablatures, lyrics

Guitar lessons | Add/correct | Request | Top 50 tabs Artists:  A B C D E F G H I J K L M N O P Q R S T U V W X Y Z 0-9

Sold Out Bass Tabs – Gang Green

CD, Sheet music, Poster

Do you like Sold Out? Share with your friends now
Bass Tabs
GANG GREEN  SELFISH TAANG DUB / SOLD OUT

Bass tabs

First Rhythm:
|---------------------|---77--55-532------|
|---------------------|------------------|
|-5-555-3333-0235-023-|-55--33------5-023-|
|---------------------|-------------------|

|---------------------|-------------------|
|--753--03------------|--7-7-5-5----------|
|-5---03-----0235-023-|-5-5-3-3--0235-023-|
|---------------------|-------------------|

|---------------------|-------------------|
|------777------------|----------555------|
|-5553---0235-023----|-5-5553333---5----|
|---------------------|-------------------|

Chorus:
|----------------------------------|
|----------------------------------|
|-55555555555555558888777777777777-| (4x)
|----------------------------------|

|------------------------------------------------------------------|
|------------------------------------------------------------------|
|-2222222222222222555555555555555588887777777777778888777777777777-| (4x)
|------------------------------------------------------------------|

(Then play first rhythm again without lengthening at end.)

|-------------------------------|
|-------------------------------|
|-2-2-22225-5558-7777778-777777-| (4x)
|-------------------------------|  

Guitar Solo:
|------------------------------------------------------------------|
|------------------------------------------------------------------|
|-2222222222222222555555555555555588887777777777778888777777777777-| (4x)
|------------------------------------------------------------------|  
Outro:
|-------------------------|
|-------------------2-----|
|-2---------7---5-------2-|
|-------------------------|

By Rens van Bree





Comments


Popular Gang Green tabs & chords
Kill A Commie Bass Tabs
6000 Crucified Slaves Tabs
Flight 911 Tabs
Ill Worry About It Monday Tabs
Lets Drink Some Beer Tabs
Livin In Oblivion Tabs
Skate To Hell Tabs
Snob Tabs
Weekend Millionaire Tabs
Well Give It To You Tabs


Song lyrics



↑ Back to top | Tablatures and chords are parodies/interpretations of the original songs. You may use it for private study, scholarship, research or language learning purposes only
© 2014 AZChords.com Contact us | Privacy policy | DMCA | Add/correct tabs | Request tabs | Top 50 tabs