» » »

Talking To The Buddha Tabs (ver.1)

Artists:  A B C D E F G H I J K L M N O P Q R S T U V W X Y Z # 

Talking To The Buddha Tabs (ver.1)

Gandalf Murphy And The Slambovian Circus Of Dreams
Rating:
0/5 (0 votes)

Hard to play? Try these video lessons and learn fast.
                Song Title: Talkin' To the Buddha
Band: Gandalf Murphy and the Slambovian Circus of Dreams
Members: Joziah Longo, Tink Lloyd, Sharkey McEwen, Tony Zuzulo

This tab is the author’s own work and represents his / her 
interpretation of the song.  

Tuning: (D  G  C  F  A  D)


	D5			 C

Intro / Verse Part A
 D|------------------------------2---22-----------------||
 A|------------------------------3---33---3-3-3-3-------||
 F|------------------------------2---22---2-2-2-0-------||
 C|--2-22--0h2-0h2-0h2-0h2-0h2---0---00---0-0-0-0--4b-0-||
 G|--2-22--2---2---2---2---2----------------------------||
 D|--0-00--0---0---0---0---0----------------------------||

Verse Part B
  	
	D5

 D|-------------------------------------------------||
 A|-------------------------------------------------||
 F|-------------------------------------------------||
 C|--2-22-0h2-0h2-0h2-0h2-2-------------------------||
 G|--2-22-2---2---2---2---0--2--0h2-0h2-0h2-0h2-----||
 D|--0-00-0---0---0---0---0--0--0---0---0---0-------||

Chorus:

	F	C

 D|-3---2--------------------------||
 A|-3---3-----2-2-2-222------------||
 F|-0---4--0--3-3-3-330------------||
 C|-0---4--2------------4b--0------||
 G|-2---2--2-----------------------||
 D|-3---2--0-----------------------||

That's the song. Making it fit the lyrics can be challenging in places however. 
Usually, Joe does some stuff during the veres which is too light to hear clearly. 
I usually just fingerpick the corresponding chords.

Suggestion by Atwbthe3rd:
Play this as the 2nd 1/2 of Verse B

    A5                    D5
 D|--------------------------||
 A|--------------------------||
 F|-4-44-4---4---4---4-------||
 C|-4-44-4---4---4---4---0-2-||  
 G|-2-22-0h2-0h2-0h2-0h2-0-2-||   
 D|------------------------0-||

Solo 1: 

D|-----------------------------------------------------------------------||
A|--17b--17---15b-15-13-12-10h12p10-10------15-13-12-10h12p10--8h10p8/7--||
F|----------16-----------------------------------------------------------||
C|--------------------------------------7--------------------------------||
G|-----------------------------------------------------------------------||
D|-----------------------------------------------------------------------||


D|--12b--15-15-12---14b----------------------------------------------||
A|------------------------12---15------------------------------------||
F|-------------------------------------------------------------------||
C|-------------------------------------------------------------------||
G|-------------------------------------------------------------------||
D|-------------------------------------------------------------------||
            
Hard to play? Try these video lessons and learn fast. | Correct




comments powered by Disqus
↑ Back to top | Tablatures and chords are parodies/interpretations of the original songs. You may use it for private study, scholarship, research or language learning purposes only