>
 >
Somewhere Out In Space

Somewhere Out In Space Guitar Tabs

Gamma Ray - Somewhere Out In Space chords, tabs, tablatures, lyrics

Guitar lessons | Add/correct | Request | Top 50 tabs Artists:  A B C D E F G H I J K L M N O P Q R S T U V W X Y Z 0-9

Somewhere Out In Space Guitar Tabs – Gamma Ray

CD, Sheet music, Poster

Do you like Somewhere Out In Space? Share with your friends now
Tabs
Music & Lyrics by Kai Hansen 
[Transcripted by LX - 02/2001 ] 

Tunning : down 1/2 step

1

  Guit.2
e|.---.---.---.h--.---.---.---.---|.---.---.---.---.---.---.---.---|
B|------------7-8-7~~-------------|888888881010121213131212108877--|
G|9~~-------9---------------------|#-------#---#---#---#---#-#-#-88|
D|--------9-----------------------|------------------------------#-|
A|--------------------------------|--------------------------------|
E|--------------------------------|--------------------------------|
||    P.M.[..]
||Guit.1
e|.---.---.---.---.---.---.---.---|.---.---.---.---.---.---.---.---|
B|--------------------------------|--------------------------------|
G|9---------------7---------------|--------------------------------|
D|9------------h--7---------------|--------------------------------|
A|7---------7-9-105---------------|------------222233332222--------|
E|--------0-----------------------|333333335555------------55332233|
     P.M.[..]                     [................................]

  Guit.3
||.---.---.---5h7-5~~-.---.---.---|77777777888810101212101088775~--|
||------------7h8-7~~-------------|88888888101012121313121210887~--|
||9~~-------9---------------------|#-------#---#---#---#---#-#-#---|
||--------9-----------------------|--------------------------------|
||--------------------------------|--------------------------------|
||--------------------------------|--------------------------------|
||    P.M.[..]
||Guit.1
||.---.---.---.---.---.---.---.---|.---.---.---.---.---.---.---.---|
||--------------------------------|--------------------------------|
||9---------------7---------------|--------------------------------|
||9------------h--7---------------|--------------------------------|
||7---------7-9-105---------------|------------222233332222--------|
||--------0-----------------------|333333335555------------55332~--|
     P.M.[..]                     [................................]


 

2

  Guit.2 & 3 
||.---.---.---.---.---.---.---.---|.---.---.---.---.---.---.---.---|
||----------------12~~~~------1012|13~~~~------12--10~~~~--12131012|
||9~~~~---------------------------|--------------------------------|
||--------------------------------|--------------------------------|
||--------------------------------|--------------------------------|
||--------------------------------|--------------------------------|
||    P.M.[..]
||Guit.1
||.---.---.---.---.---.---.---.---|.---.---.---.---.---.---.---.---|
||--------------------------------|--------------------------------|
||--------|-----------------------|--------------------------------|
||--------9---------------|---|-|-|--------|---|-------------------|
||--------7---------------9---7/9-|--------10--9-------------9/107-|
||0-0-0-0---------7-7-7-7-7---5/7-|8-8-8-8-8---7---5-5-5-5-5-7/8\5-|
P.M.[....]       [.......]        [.......]       [.........]

  Guit.2 & 3 
||.---.---.---.---.---.---.---8-10|12~~~~--.---10--8~~~~---.---.---|
||----------------12~~~~------1012|13~~~~------12--10~~~~----1210--|
||9---9~~~~-----------------------|--------------------------1211--|
||--------------------------------|--------------------------------|
||--------------------------------|--------------------------------|
||--------------------------------|--------------------------------|
||    P.M.[..]
||Guit.1
||.---.---.---.---.---.---.---.---|.---.---.---.---.---.---.---.---|
||--------------------------------|--------------------------------|
||--------|-----------------------|--------------------------------|
||--------9---------------|---|-|-|--------|---|-----------|-|-|---|
||--------7---------------9---7/9-|--------10--9-----------7-5-4---|
||0-0-0-0---------7-7-7-7-7---5/7-|8-8-8-8-8---7---5-5-5-5-5-3-2---|
P.M.[....]       [.......]        [.......]       [.......]

3


  Guit.2 & 3 
||.---.---.---.---.---.---.---.---|.---.---.---.---.---.---.---.---|
||8-8-%---------------------------|--------------------------------|
||9-9-%---------------------------|--------------------------------|
||--------------------------------|-h-------p--------.---.---|-----|
||2-2-%---------------------------|5-7-----8-7-------8---7---5-----|
||0-0-%---------------------------|----0-0-----0-000-6---5---3-----|
||                             P.M.   [...]   [.....]
||Guit.1
||.---.---.---.---.---.---.---.---|.---.---.---.---.---.---.---.---|
||--------------------------------|--------------------------------|
||--------------------------------|stéréo alternance---------------|
||-h-------p-------h----.---|-----|------------------.---.---|-----|
||5-7-----8-7-----5-7---8---7-----|------------------8---7---5-----|
||----0-0-----0-0-----0-6---5-----|--------------000-6---5---3-----|
P.M. [...]   [...]   [.]                        [...]

  Guit.1 & 2 
||.---.---.---.---.---.---.---.---|.---.---.---.---.---.---.---.---|
||--------------------------------|--------------------------------|
||--------------------------------|--------------------------------|
||-h-------p-------h----.---|-----|-h-------p--------.---.---|-----|
||5-7-----8-7-----5-7---8---7-----|5-7-----8-7-------5---7---8-----|
||----0-0-----0-0-----0-6---5-----|----0-0-----0-000-3---5---6-----|
P.M. [...]   [...]   [.]              [...]   [.....]

 

4

I'm trapped in a castle of illusions out in space no more illusions
||.---.---.---.---.---.---.---.---|.---.---.---.---.---.---.---.---|
||--------------------------------|--------------------------------|
||------------------|-----|-----|-|--|-----|-----|---|---|---|---|-|
||--|-----|-----|---5-----5-----5-|--7-----7-----7---7---7---7---7-|
||--5-----5-----5---3-33333-33333-|335-55555-55555-555-555-555-555-|
||333-33333-33333-33--------------|--------------------------------|
P.M.  [..]  [..] [.]  [..]  [..]  [.]  [..]  [..] [.] [.] [.] [.]

Out on a journey, on a mission for the human race
||.---.---.---.---.---.---.---.---|.---.---.---.---.---.---.---.---|
||--------------------------------|--------------------------------|
||------------------|-----|-----|-|--|-----|-----|---|---|---|---|-|
||--|-----|-----|---5-----5-----5-|--7-----7-----7---7---7---7---7-|
||--5-----5-----5---3-33333-33333-|335-55555-55555-555-555-555-555-|
||333-33333-33333-33--------------|--------------------------------|
P.M.  [..]  [..] [.]  [..]  [..]  [.]  [..]  [..] [.] [.] [.] [.]

 

5

Terrified, I had to realize that I've been talkin' to the gods of fire
||.---.---.---.---.---.---.---.---|.---.---.---.---14--.---.---.---|
||----------------14--------------|12--15--14--12--#---15--14--15--|
||11--14--13--11--#---14--13--14--|#---#---#---#-------#---#---#---|
||#---#---#---#-------#---#---#---|--------------------------------|
||--------------------------------|--------------------------------|
||--------------------------------|--------------------------------|
|| Guit.1
||.---.---.---.---.---.---.---.---|.---.---.---.---.---.---.---.---|
||--------------------------------|--------------------------------|
||--------------------------------||-----------|---|---------------|
||--------------------------------|4-----|-----4---4---------------|
|||-|-0000|-|-0000|-|-0000|-|-0000|2-22225-22222-222-22555544445555|
||2-2-----2-2-----2-2-----2-2-----|--------------------------------|
P.M.[.............................]  [..]  [..] [.]  [............]

I got nowhere to stand, 'cause I'm a running man... to get away
||.---.---.---.---12--.---.---.---|10--14--12--10--10--12--14--16--|
||10--14--12--10--14--14--12--14--|12--15--14--12--12--14--15--17--|
||11--14--13--11--#---14--13--14--|#---#---#---#-------#---#---#---|
||#---#---#---#-------#---#---#---|--------------------------------|
||--------------------------------|--------------------------------|
||--------------------------------|--------------------------------|
|| Guit.1
||.---.---.---.---.---.---.---.---|.---.---.---.---.---.---.---.---|
||--------------------------------|--------------------------------|
||--------------------------------||-----------|---|---------------|
||--------------------------------|4-----------4---4---------------|
|||-|-0000|-|-0000|-|-0000|-|-0000|2-22555544442-222-22444455557777|
||2-2-----2-2-----2-2-----2-2-----|--------------------------------|
P.M.[.............................]  [........] [.]

 

6

  All   that   I see  is  the     years...      somewhere out in space
||17~-.---.---.---.---.---.---.---|.---.---.---.---.---.---.---.---|
||19~-----------------------------|--------------------------------|
||11----bend+0.5--9---bend&release|7---------------7---7---9---9---|
||11--------.^----9--------|^.----|7---------------7---7---9---9---|
||9-------11------7-------11--11--|5---------------5---5---7---7---|
||--------------------------------|--------------------------------|


                                        And it's time for deliverance
||.---.---.---.---.---.---.---.---|.---.---.---.---.---.---.---.---|
||--------------------------------|--------------------------------|
||11----bend+0.5--9---bend&release|7---------------7---7---9---9---|
||11--------.^----9--------|^.----|7---------------7---7---9---9---|
||9-------11------7-------11--11--|5---------------5---5---7---7---|
||--------------------------------|--------------------------------|



 

7

  Guit.2  (with guit.4, an octave higher)                     bend&release +1 
||----------------|----------------|----------------|--^--------------|
||9101010109------|9101010109------|9101010109------|12^^1012109109---|
||----------11911-|----------11911-|----------11911-|--------------911|
||----------------|----------------|----------------|-----------------|
||----------------|----------------|----------------|-----------------|
||----------------|----------------|----------------|-----------------|
|| Guit.1
||.---.---.---.---|.---.---.---.---|.---.---.---.---|.---.---.---.---|
||----------------|----------------|----------------|----------------|
||----------------|----------------|----------------||-------|-------|
||----------------|----------------|----------------|7-------9-------|
||----------------|----------------|----------------|5-5555557-777777|
||2-22222222222222/5-55555555555555/7-77777777777777|----------------|
P.M.[.............]  [.............]  [.............]  [....]  [.....] 

  Guit.2 & 3
||7999999997------|7999999997------|7999999997------|10^^9-109-79-7---|
||910101010910910-|910101010910910-|910101010910910-|12^^1012109109910|
||----------11911-|----------11911-|----------11911-|--------------911|
||----------------|----------------|----------------|-----------------|
||----------------|----------------|----------------|-----------------|
||----------------|----------------|----------------|-----------------|
|| Guit.1
||.---.---.---.---|.---.---.---.---|.---.---.---.---|.---.---.---.---|
||----------------|----------------|----------------|----------------|
||----------------|----------------|----------------||-------|-------|
||----------------|----------------|----------------|7-------9-------|
||----------------|----------------|----------------|5-5555557-777777|
||2-22222222222222/5-55555555555555/7-77777777777777|----------------|
P.M.[.............]  [.............]  [.............]  [....]  [.....] 

 

8

  Guit.1 & 2 
||.---.---.---.---.---.---.---.---|.---.---.---.---.---.---.---.---|
||--------------------------------|--------------------------------|
||----------------------.---|-----|------------------.---.---|-----|
||-h-------p-------h----5---4-----|-h-------p--------5---4---2-----|
||2-4-----2-4-----2-4---3---2-----|2-4-----2-4-------3---2---0-----|
||0-2-2-2-0-2-2-2-0-2-2-----------|0-2-2-2-0-2-2-222---------------|
P.M. [...]   [...]   [.]              [...]   [.....]

  Guit.1 & 2 
||.---.---.---.---.---.---.---.---|.---.---.---.---.---.---.---.---|
||--------------------------------|--------------------------------|
||----------------------.---|-----|------------------.---.---|-----|
||-h-------p-------h----5---4-----|-h-------p--------2---4---5-----|
||2-4-----2-4-----2-4---3---2-----|2-4-----2-4-------0---2---3-----|
||0-2-2-2-0-2-2-2-0-2-2-----------|0-2-2-2-0-2-2-222---------------|
P.M. [...]   [...]   [.]              [...]   [.....]

 

9

  Guit.1 & 2
||.---.---.---.---.---.---.---.---|.---.---.---.---.---.---.---.---|
||--------------------------------|--------------------------------|
||--------------------------------|--------------------------------|
||-h-------p------|-|-|-|-|-|-----|.---.---.---.-------------------|
||5-7-----8-7-----5-7-8-7-5-7-----|2---8---7---5-------------------|
||----0-0-----0-0-------------0-00|0---6---5---3---5-555-5-555-555-|
P.M. [...]   [...]           [....]               [...............]

  Guit.1 & 2                                       Ohhhh   Ohhhhh
||.---.---.---.---.---.---.---.---|.---.---.---.---.---.---.---.---|
||--------------------------------|--------------------------------|
||--------------------------------|--------------------------------|
||-h-------p------|-|-|-|-|-|-----|.---.---.---.---|-------|-------|
||5-7-----8-7-----5-7-8-7-5-7-----|2---8---7---5---7-------10------|
||----0-0-----0-0-------------0-00|0---6---5---3---5-------8-------|
P.M. [...]   [...]           [....]

 10

 Ohhhh Ohhhhh               I'm a watcher in the dark,      I'm so 
||.---.---.---.---.---.---.---.---|.---.---.---.---.---.---.---.---|
||--------------------------------|--------------------------------|
||--------------------------------|--------------------------------|
|||-------|-------|-----|-|-------||-----|-|---|-|-|---------------|
||9-------10------5-----2-5-------|5-----2-5---5-5-2---------------|
||7-------8-------3-33333-3-333333|3-33333-3-333-3-3-33333333333333|
P.M.                            [..]    [....]   [..]   [.]      [..]   [......] 


 cold inside my heart,       I'm a temple in the storm,       and 
||.---.---.---.---.---.---.---.---|.---.---.---.---.---.---.---.---|
||--------------------------------|--------------------------------|
||--------------------------------|--------------------------------|
|||-----|-|---|-|-|---------------||-----|-|---|-|-|---------------|
||5-----2-5---5-5-2---------------|7-----4-7---7-7-4---------------|
||3-33333-3-333-3-3-33333333333333|5-55555-5-555-5-5-55555555223344|
P.M.[..]    [....]  [..]    [....]   [..]   [.]      [............]

I'm bound to be reborn
||.---.---.---.---.---.---.---.---|
||----------------|---------------|
|||-----|-|---|-|-7~~~~-----------|
||7-----4-7---7-7-7~~~~-----------|
||5-55555-5-555-5-----------------|
||--------------------------------|
P.M.[...]   [....]

 

 11

 Take me down to the underground, let me see the gods of fire
||.---.---.---.---.---.---.---.---|.---.---.---.---.---.---.---.---|
||--------------------------------||-------------------------------|
|||-------------------------------|4-------------------------------|
||4-------------------------------|4-------------------------------|
||4-------------------------------|2-------------------------------|
||2-------------------------------|--------------------------------|

 Cause I know where they stand, another reason there to leave
||.---.---.---.---.---.---.---.---|.---.---.---.---.---.---.---.---|
||--------------------------------||-------------------------------|
|||-------------------------------|4-------------------------------|
||4-------------------------------|4-------------------------------|
||4-------------------------------|2-------------------------------|
||2-------------------------------|--------------------------------|

 Take me down, take me down, I wanna meet the gods of fire
||.---.---.---.---.---.---.---.---|.---.---.---.---.---.---.---.---|
||--------------------------------||-------------------------------|
|||-------------------------------|4-------------------------------|
||4-------------------------------|4---------------H---------------|
||4---------------H---------------|2-------------------------------|
||2-------------------------------|--------------------------------|

 All of their intention is the center                       of it
||.---.---.---.---.---.---.---.---|.---.---.---.---.---.---.---.---|
||--------------------------------|--------------------------------|
||--------------------------------|--------1---2---4---6---7---10--|
||----------------3-------4-------|3---4---3---4---6---7---9---11--|
||4/4-----5/5-----4-------5-------|4---5---------------------------|
||--------------------------------|--------------------------------|

 

12

  All   that   I see  is  the     years...      somewhere out in space
||----.---.---.---.---.---.---.---|.---.---.---.---.---.---.---.---|
||--------------------------------|--------------------------------|
||11--------------9---------------|7-------------------|-|-|-----|-|
||11--------------9---------------|7---------------|-|-7-7-6-|-|-7-|
||9---------------7---------------|5---------------5-7-------9-7---|
||--------------------------------|--------------------------------|
|| Guit.1
||.---.---.---.---.---.---.---.---|.---.---.---.---.---.---.---.---|
||--------------------------------|--------------------------------|
||11----bend+0.5--9---bend&release|7---------------7---7---9---9---|
||11--------.^----9--------|^.----|7---------------7---7---9---9---|
||9-------11------7-------11--11--|5---------------5---5---7---7---|
||--------------------------------|--------------------------------|


                                        And it's time for deliverance
||.---.---.---.---.---.---.---.---|.---.---.---.---.---.---.---.---|
||--------------------------------|--------------------------------|
||11--------------9---------------|7-------------------|-|-|-----|-|
||11--------------9---------------|7---------------|-|-7-7-6-|-|-7-|
||9---------------7---------------|5---------------5-7-------9-7---|
||--------------------------------|--------------------------------|
|| Guit.1
||.---.---.---.---.---.---.---.---|.---.---.---.---.---.---.---.---|
||--------------------------------|--------------------------------|
||11--------------9---------------|7---------------7---7---9---9---|
||11--------.^----9--------|^.----|7---------------7---7---9---9---|
||9-------11------7-------11--11--|5---------------5---5---7---7---|
||--------------------------------|--------------------------------|

  Now   that I know   I've got to get away...   somewhere out in space
||----.---.---.---.---.---.---.---|.---.---.---.---.---.---.---.---|
||--------------------------------|--------------------------------|
||11--------------9---------------|7-------------------|-|-|-----|-|
||11------9-11~---9-------9-1111~-|7---------------|-|-7-7-6-|-|-7-|
||9---------------7---------------|5---------------5-7-------9-7---|
||--------------------------------|--------------------------------|
|| Guit.1
||.---.---.---.---.---.---.---.---|.---.---.---.---.---.---.---.---|
||--------------------------------|--------------------------------|
||11--------------9---------------|7---------------7---7---9---9---|
||11--------.^----9--------|^.----|7---------------7---7---9---9---|
||9-------11------7-------11--11--|5---------------5---5---7---7---|
||--------------------------------|--------------------------------|

                                                 time for deliverance
||----.---.---.---.---.---.---.---|.---.---.---.---.---.---.---.---|
||--------------------------------|--------------------------------|
||11--------------9---------------|7-------------------|-|-|-----|-|
||11------9-11~---9-------9-1111~-|7---------------|-|-7-7-6-|-|-7-|
||9---------------7---------------|5---------------5-7-------9-7---|
||--------------------------------|--------------------------------|
|| Guit.1
||.---.---.---.---.---.---.---.---|.---.---.---.---.---.---.---.---|
||--------------------------------|--------------------------------|
||11--------------9---------------|7---------------7---7---9---9---|
||11--------.^----9--------|^.----|7---------------7---7---9---9---|
||9-------11------7-------11--11--|5---------------5---5---7---7---|
||--------------------------------|--------------------------------|


...
...
...
Solo: Kai / Both / Both left and right / Kai / Both
... 

 

19

 Now it's time to say goodbye, or we will sink in sorrow
||.---.---.---.---.---.---.---.---|.---.---.---.---.---.---.---.---|
||--------------------------------|--------------------------------|
|||---|---|-------|---|---|-------||---|---|---|---|---|---|-------|
||9---9---9---|-|-9---9---9---|-|-|10--10--12--10--10--9---9---|-|-|
||7---7---7---108-7---7---7---108-|8---8---10--8---8---7---7---108-|
||--0---0---00------0---0---00----|--0---0---0---0---0---0---00----|
P.M .   .   [...]   .   .   [...]    .   .   .   .   .   .   [...]

 No, we don't know the reason why, another day, tomorrow
||.---.---.---.---.---.---.---.---|.---.---.---.---.---.---.---.---|
||--------------------------------|--------------------------------|
|||---|---|-------|---|---|-------||---|---|---|---|---|---|-------|
||9---9---9---|-|-9---9---9---|-|-|10--10--12--10--10--9---9-------|
||7---7---7---108-7---7---7---108-|8---8---10--8---8---7---7-------|
||--0---0---00------0---0---00----|--0---0---0---0---0---0---------|
P.M .   .   [...]   .   .   [...]    .   .   .   .   .   . 


 

20 (adaptation for 3 guitares)


 Oh      oh  oh  oh     I thank you for giving me hope
||.---.---.---.---.---.---0---.---|0---.---.---.---.---.---0---.---|
||--------------------------000---|--000-----0---------------000---|
|||---------------|-------------2-|------2-----2-1-|-------------2-|
||2---2---0---2---3---------------|----------------2---------------|
||2---2---0---2---3---------------|----------------2---------------|
||0---0-----------1---------------|----------------0---------------|

 Oh      oh  oh  oh         Follow me into a new life...
||.---.---.---.---.---.---0---.---|0---.---0---.---.---.---.---.---|
||--------------------------000---|--000-----000---|---------------|
|||---------------|-------------2-|------2-------2-5---------------|
||2---2---0---2---3---------------|----------------5---------------|
||2---2---0---2---3---------------|----------------3---------------|
||0---0-----------1---------------|--------------------------------|


||.---.---.---.---.---.---.---.---.---.---.---.---|.---.---.---.---.---.---.---.---|
||------------------------------------------------|--------------------------------|
||--------|-------|-|-|-|-|-|-|-|-|-|-|-|-|-|-|-|-|--------------------------------|
||--------5-------4-4-4-4-4-4-4-4-4-4-4-4-4-4-4-4-|--------------------------------|
||--------3-------2-2-2-2-2-2-2-2-2-2-2-2-2-2-2-2-|2222------------2222444455557777|
||------------------------------------------------|----555533332222----------------|
P.M.             [.................................................................]



 

21

  All   that   I see  is  the     years...      somewhere out in space
||----.---.---.---.---.---.---.---|.---.---.---.---.---.---.---.---|
||--------------------------------|--------------------------------|
||9---------------7---------------|5-------------------|-|-|-----|-|
||9---------------7---------------|5---------------|-|-5-5-4-|-|-5-|
||7---------------5---------------|3---------------3-5-------7-5---|
||--------------------------------|--------------------------------|
|| Guit.1
||.---.---.---.---.---.---.---.---|.---.---.---.---.---.---.---.---|
||--------------------------------|--------------------------------|
||9------bend+0.5-7---bend&release|5---------------5---5---7---7---|
||9--------.^-----7-------|^.-----|5---------------5---5---7---7---|
||7-------9-------5-------9--9----|3---------------3---3---5---5---|
||--------------------------------|--------------------------------|

   ...
   ...
   ...



22 OUTRO 

  Guit.1 & 2
||.---.---.---.---.---.---.---.---|.---.---.---.---.---.---.---.---|
||--------------------------------|--------------------------------|
|||-|-------------|---------------|--------------------------------|
||4-4-------------2---------------|--------------------------------|
||4-4----------h--2---------------|------------444455554444--------|
||2-2-----0-2-4-5-0---------------|555555557777------------77554455|
     P.M.[...]                    [................................]

  Guit.1 & 2                                       Somewhere Out In Space
||.---.---.---.---.---.---.---.---|.---.---.---.---.---.---.---.---|----|
||--------------------------------|--------------------------------|----|
|||-|-------------|---------------|--------------------------------|.---|
||4-4-------------2---------------|--------------------------------|4---|
||4-4----------h--2---------------|------------444455554444--------|4---|
||2-2-----0-2-4-5-0---------------|555555557777------------77554455|2---|
     P.M.[...]                    [................................]





Comments


Popular Gamma Ray tabs & chords
Abyss Of The Void 2 Bass Tabs
Men, Martians And Machines Bass Tabs
Fairytale Tabs
Follow Me Intro Tabs
Gardens Of The Sinner Tabs
Guardians Of Mankind Tabs
Its A Sin Intro 1 Tabs
Land Of The Free 1 Tabs
The Saviour 1 Tabs
Watcher In The Sky Tabs


Song lyrics



↑ Back to top | Tablatures and chords are parodies/interpretations of the original songs. You may use it for private study, scholarship, research or language learning purposes only
© 2014 AZChords.com Contact us | Privacy policy | DMCA | Add/correct tabs | Request tabs | Top 50 tabs