» » »

Gamma Ray, Land Of The Free Tabs (ver.1)

Artists:  A B C D E F G H I J K L M N O P Q R S T U V W X Y Z # 

Land Of The Free Tabs (ver.1)

Gamma Ray Tabs
 Rating:
3.8/5 (5 votes)
Land Of The Free lessons Tabs too difficult? Try these video lessons and learn fast
                Band : Gamma Ray
Song : LAND OF THE FREE
[Words&Music by Kai Hansen] 
[Transcripted by L-X]


Notations :
.: palm muting
h : hammer-on
p : pull-off
^ : bend
^> : bend and release
/ = slide-up
\ = slide-down
~ = vibrato
tr~ = trill
# = tremolo-picking 
>= accentuate


INTRO

  Guit.1
e|-------------------------|-------------------------|
B|-------------------------|-------------------------|
G|------------------->-->--|------------------->-->--|
D|>----->------>-----9--9--|>----->---- ->-----2--2--|
A|577777107777775----7--7--|577777107777775----2--2--|
E|---------------7653------|---------------76530--0--|
||Guit.2
e|-------------------------|-------------------------|
B|>----->------>----->-->--|>----->------>-----------|
G|799999129999997----9~-9~-|799999129999997---->-->--|
D|---------------9875------|---------------98752--2--|
A|-------------------------|-------------------2--2--|
E|-------------------------|-------------------0--0--|

  Guit.1
e|-------------------------|-------------------------|---|
B|-------------------------|-------------------------|---|
G|------------------->-->--|------------------->-->--|>--|
D|>----->------>-----9--9--|>----->---- ->-----2--2--|2-}|
A|577777107777775----7--7--|577777107777775----2--2--|2-}|
E|---------------7653------|---------------76530--0--|0--|
||Guit.2
e|>----->------->---->-->--|>----->------>-----------|---|
B|788888128888887----8--8--|788888128888887---->-----|>-}|
G|---------------997-------|---------------997-9~~--\|9-}|
D|------------------9------|------------------9------|---|
A|-------------------------|-------------------------|---|
e|-------------------------|-------------------------|---|

RIFF 

e|---------------------------|--------------------------|
B|--------------------------|--------------------------|
G|*------------------->-----|------------------->-->--*|
D|*>----->----->------7-->--|>----->----->------5--7--*|
A|-57777757777757777775--7--|57777757777757777773--5---|
E|-----------------------5--|--------------------------|
P.M.[................] 

e|-----------------------------||-0~--|----|----|0~--|----|----||
B|------------->---------------||-8~--|>---|----|8~--|>->-|----||
G|->----->-----4----->->->-----||*9~--|7->-|----|9~--|5-7-|---*||
D|-4-----4-----------5-5-7-----||*9~--|7-7-|----|9~--|5-7-|---*||
A|-2-2222--2222--22223-3-5->---||-7~--|5-7-|>---|7~--|3-5-|>---||
E|---....--....--....------0---||-----|--5-|0---|----|----|0---||


 

REFRAIN

Somewhere in the desert of the void Beyond the wall__
We're the last survivors We're the ones who'll never fall__ 

___Men in__side the circle _leave the night____! 
e|--------------------------------|--------|
B|------------->------------------|--------|
G|->----->-----4------>--->-------|--------|
D|-4-----4------------5---7-------|--------|
A|-2-2222--2222---22223---5--->---|^bar----|
E|---....--.....--....--------0---|0-------|


Darkness all around us Not a single beam of light__
All we have is our faith Waiting for the fight__

The time has come to break the ou_ter _wall____
e|-------------------------------|--------|
B|------------>------------------|--------|
G|->----->-----4----->--->-------|--------|
D|-4-----4-----------5---7-------|--------|
A|-2-2222--2222--22223---5--->---|^bar----|
E|---....--....--....--------0---|0-------|


BRIDGE

  Guit.1
__Grab your heart_show you the way____Hold you__ head up_ high_____________ 
e|---------|--------|--------|--------|---------|--------|--------|--------|
B|---------|--------|--------|--------|---------|--------|--------|--------|
G|-9-------|7-------|4-------|9-------|12-------|5-------|7-------|--------|
D|-9-------|7-------|4-------|9-------|12-------|5-------|7-------|--------|
A|-7-------|5-------|2-------|7-------|10-------|3-------|5-------|55555555|
E|---------|--------|--------|--------|---------|--------|--------|........|
||Guit.2 
e|---------|--------|--------|--------|---------|--------|--------|--------|
B|---------|--------|--------|--------|---------|--------|--------|--------|
G|---------|--------|--------|--------|---------|--------|--------|--------|
D|---------|--------|--------|--------|---------|--------|--------|--------|
A|-7~------|9~------|6~------|10~-----|10~------|10~-----|12------|12121212|
E|---------|--------|--------|--------|---------|--------|--------|........|

CHORUS

  Guit.1
 High   above at the edge of the world  searching for glory and peace 
e|-3-------|--------|--------|--------|---------|--------|--------|--------|
B|-3-------|--------|--------|--------|---------|--------|--------|--------|
G|-0-------|7-------|--------|4-------|5--------|--------|--------|7-------|
D|-0-------|7-------|2-------|4-------|5--------|5-------|7-------|7-------|
A|-2-------|5-------|2-------|2-------|3--------|5-------|7-------|5-------|
E|-3-------|--------|0-------|--------|---------|3-------|5-------|--------|
||Guit.2
e|---------|--------|--------|--------|---------|--------|--------|--------|
B|---------|--------|12^>----|--------|---------|--------|--------|--------|
G|/12-----/|14-12h14|--------|11~-----|---------|--------|--------|--------|
D|---------|--------|--------|--------|---------|--------|--------|--------|
A|---------|--------|--------|--------|---------|--------|--------|--------|
E|---------|--------|--------|--------|---------|--------|--------|--------|

When the time has come          you     will       see        Our return  to 
the   land  of  the   free
e|-3-------|--------|--------|--------|---------|--------|3----------------|
B|-3-------|--------|--------|--------|---------|--------|3----------------|
G|-0-------|7-------|--------|4-------|5--------|7-------|0----------------|
D|-0-------|7-------|2-------|4-------|5--------|7-------|0----------------|
A|-2-------|5-------|2-------|2-------|3--------|5-------|2------------....|
E|-3-------|--------|0-------|--------|---------|--------|3------------3333|
|| 
e|---------|--------|--------|--------|---------|--------|--------|--------|
B|---------|--------|--------|--------|---------|--------|--------|--------|
G|---------|--------|--------|--------|---------|--------|--------|--------|
D|---------|--------|--------|--------|---------|--------|--------|--------|
A|---------|--------|--------|--------|---------|--------|--------|--------|
E|---------|--------|--------|--------|---------|--------|--------|--------|

INTERLUDE

e|----------------+1--------------|-----------------+1--------------|
B|5---5---7---8-^^--^^8---7-------|-----5---7---8-^^--^^8---7~------|
G|----------------------------7---|5--------------------------------|
D|--------------------------------|---------------------------------|
A|--------------------------------|---------------------------------|
E|--------------------------------|---------------------------------|
|| 
e|--------------------------------|----------------|----------------|
B|--------------------------------|----------------|----------------|
G|>-------------------------------|>------->-------|>------->-------|
D|9-----------555577775555--------|5-------5-------|7-------7-------|
A|7---77779999............99995555|3---33333---3333|5---55555---5555|
E|----........------------........|----....----....|----....----....|

E|----------------+1--------------|-----------------+1--------------|
B|5---5---7---8-^^--^^8---7-------|-----5---7---8-^^--^^8---7---5---|
G|----------------------------7---|5--------------------------------|
D|--------------------------------|---------------------------------|
E|--------------------------------|---------------------------------|
|| 
e|--------------------------------|----------------|----------------|
B|--------------------------------|----------------|----------------|
G|>-------------------------------|>------->-------|>------->-------|
D|9-----------555577775555--------|5-------5-------|7-------7-------|
A|7---77779999............99995555|3---33333---3333|5---55555---5555|
E|----........------------........|----....----....|----....----....|

e|------------------------------|
B|-4~-----7~\-----12~\----------|
G|---------------------->--->---|
D|----------------------5---7---|
A|----------------------3---5---|
E|------------------------------|
||
e|------------------------------|
B|------------------------------|
G|->------>------>------>--->---|
D|-4------4------4------5---7---|
A|-2-2222-2-2222-2-2222-3---5---|
E|------------------------------| 


_Men _inside the circle Tell me what you feel & see
e|------------------------------------------------------|
B|------------------------------------------------------|
G||-----|-----|-----|-----|-----|-----|-----------------|
D|9-----9-----8-----8-----9-----9-----8-----------------|
A|7-77777-77777-77777-77777-77777-77777-7777101010109999|
E|------------------------------------------------------|
P.M[...] [...] [...] [...] [...] [...] [................] 

Delusions of___ rea__li__ty The mirror of your dreams 
e|.-----.-----.-----.-----.-----.-----.-----.-----------|
B|------------------------------------------------------|
G||-----|-----|-----|-----|-----|-----|-----------------|
D|9-----9-----8-----8-----9-----9-----8-----------------|
A|7-77777-77777-77777-77777-77777-77777-7777101010109999|
E|------------------------------------------------------|
P.M[...] [...] [...] [...] [...] [...] [................] 

repeat BRIDGE
repeat CHORUS
            
Submit corrections

comments powered by Disqus
↑ Back to top | Gamma Ray Tabs for Land Of The Free. Lyrics for acoustic guitar and electric guitar. Tablatures and chords are parodies/interpretations of the original songs. You may use it for private study, scholarship, research or language learning purposes only