>
 >
Heaven Or Hell

Heaven Or Hell Guitar Tabs

Gamma Ray - Heaven Or Hell chords, tabs, tablatures, lyrics

Guitar lessons | Add/correct | Request | Top 50 tabs Artists:  A B C D E F G H I J K L M N O P Q R S T U V W X Y Z 0-9

Heaven Or Hell Guitar Tabs – Gamma Ray

CD, Sheet music, Poster

Do you like Heaven Or Hell? Share with your friends now
Tabs
Hey, this is an awesome song that doesn't have any decent tabs so I guess I'll have a 
I've only got the intro so far so the rest is chords. It sounds right to me.

I've not got the solo yet but I'll keep y'all posted.

Intro

e|--------------------------------------------------------|
B|--------------------------------------------------------|
G|-4-/6--/7--/11--9--7--/12--11-9--9--7--9----------------|
D|--------------------------------------------------------|
A|-2-/4--/5--/9---7--5--/10--9--7--7--5--7----------------|
E|--------------------------------------------------------|

e|--------------------------------------------------------|
B|--------------------------------------------------------|
G|-4-/6--/7--/11--9--7--/12--11--12--9--------------------|
D|--------------------------------------------------------|
A|-2-/4--/5--/9---7--5--/10--9---10--7--------------------|
E|--------------------------------------------------------|

e|--------------------------------------------------------|
B|--------------------------------------------------------|
G|-4-/6--/7--/11--9--7--/12--11-9--9--7--9----------------|
D|--------------------------------------------------------|
A|-2-/4--/5--/9---7--5--/10--9--7--7--5--7----------------|
E|--------------------------------------------------------|

e|--------------------------------------------------------|
B|--------------------------------------------------------|
G|-4-/6--/7--/11--9--7--/12--11--12--14-------------------|
D|--------------------------------------------------------|
A|-2-/4--/5--/9---7--5--/10--9---10--12-------------------|
E|--------------------------------------------------------|

B5                                D5 A5
Where will I go now it's all over
G5                          B5       G5
 Where will I be now all is said and done
B5                                       D5 A5
Here comes the time, prepare for justice
G5                           B5    A5
 Seems like my final journey has begun

G5                               B5                A5
Riding on the wind, there's only one place left to go
G5                            F#5
Take me to my afterlife, high up or down below

          B5                 G5             A5
Heaven or Hell - where do we go when we are leaving
          B5              G5              A5
Heaven or Hell - whatever comes to set us free
          B5                 G5             A5             G5
Heaven or Hell - I've gone a long way and I see there's no wishing well
    A5                             B5
The choice is made, it's heaven or hell

Intro Riff

B5                                 D5 A5
 I'm not the one who was expected
G5                          B5     A5
 So I'll return and be from heaven sent
C#5                             E5 B5
   I'm gonna get myself elected
A5                      C#5  B5
 And now I wanna be the president - "Viva el Presidente"

A5                               C#5            B5
Master of the damned I'll be the savior of you all
A5                       G#5
Take me as a holy god to save you from the fall

          C#5                A5         B5
Heaven or Hell - where is my final destination
          C#5             A5              B5
Heaven or Hell - whatever comes to set us free
          C#5                 A5                 B5             A5
Heaven or Hell -we've gone a long way and we'll see there is no wishing well
    B5
The choice is made, it's heaven or hell

Solo
Will be posted soon

G#5                               C5            A#5
Master of the damned, I'll be the savior of you all
G#5                       C5           A#5
I'm your revelation I'm a walking miracle

          C5                 G#5        A#5
Heaven or Hell - what is our final destination
          C5                G#5      A#5
Heaven or Hell - where do we go from here
          C5                  G#5             A#5             G#5
Heaven or Hell - we've gone a long way and we see there is no wishing well
    A#5                            C5
The choice is made, it's heaven or hell

Outro

e|-----------------------------------------------|
B|-----------------------------------------------|
G|-5-/7-/8--/12-10--8--/13--12--10--10--8--10----|
D|-----------------------------------------------|
A|-3-/5-/6--/10-8---6--/11--10--8---8---6--8-----|
E|-----------------------------------------------|

e|-----------------------------------------------|
B|-----------------------------------------------|
G|-5-/7-/8--/12-10--8--/13--12--13--10-----------|
D|-----------------------------------------------|
A|-3-/5-/6--/10-8---6--/11--10--11---8-----------|
E|-----------------------------------------------|

e|-----------------------------------------------|
B|-----------------------------------------------|
G|-5-/7-/8--/12-10--8--/13--12--10--10--8--10----|
D|-----------------------------------------------|
A|-3-/5-/6--/10-8---6--/11--10--8---8---6--8-----|
E|-----------------------------------------------|

e|--------------------------------------------------|
B|--------------------------------------------------|
G|-5-/7-/8--/12-10--8--/13--12--13--15----17--------|
D|--------------------------------------------------|
A|-3-/5-/6--/10-8---6--/11--10--11--13----15--------|
E|--------------------------------------------------|

That plays while these lyrics are sung.

Heaven or hell
It's heaven or hell
There's no wishing well
                    C5 D#5 A#5 C5
It's heaven or hell

That's it apart from the solo. Comments?





Comments


Popular Gamma Ray tabs & chords
Lust For Life Bass Tabs
New World Order Bass Tabs
Fight Intro Tabs
Guardians Of Mankind Tabs
Its A Sin Intro 1 Tabs
Send Me A Sign Tabs
Somewhere Out In Space Tabs
The Saviour 1 Tabs
Your Turn Is Over Tabs
Watcher In The Sky Ukulele


Song lyrics



↑ Back to top | Tablatures and chords are parodies/interpretations of the original songs. You may use it for private study, scholarship, research or language learning purposes only
© 2014 AZChords.com Contact us | Privacy policy | DMCA | Add/correct tabs | Request tabs | Top 50 tabs