>
 >
Cosmic Chaos

Cosmic Chaos Drum Tabs

Gamma Ray - Cosmic Chaos chords, tabs, tablatures, lyrics

Guitar lessons | Add/correct | Request | Top 50 tabs Artists:  A B C D E F G H I J K L M N O P Q R S T U V W X Y Z 0-9

Cosmic Chaos Drum Tabs – Gamma Ray

CD, Sheet music, Poster

Do you like Cosmic Chaos? Share with your friends now
Drum Tabs
---------------------------------------------------------------------|
---------------------------------------------------------------------|
---------------------------------------------------------------------|
--40--------------------------------------------------------40-40-40-|
---------------------------------------------------------------------|
--35--------------------35-35-35-35-35-35-35-35-35-35-35-35-35-35-35-|

 
--------------------------------------------------|
--------------------------------------------------|
--------------------------------------------------|
--40----------------------------40----40-40-------|
--------------------------------------------------|
--35-35-35-35-35-35-35-35-35-35-35-35-35-35-35-35-|

 
--------------------------------------------------|
--------------------------------------------------|
--------------------------------------------------|
--40----------------------40-------40----40-40----|
--------------------------------------------------|
--35-35-35-35-35-35-35-35-35-35-35-35-35-35-35-35-|

 
--------------------------------------------------|
--------------------------------------------------|
--------------------------------------48-48-------|
--40----40----40-40-------40-40-------------------|
--------------------------------------------------|
--35-35-35-35-35-35-35-35-35-35-35-35-35-35-35-35-|

  
--49-------------------------------------------------|
-----------------------------------------------------|
--------------------------------------50-50----50----|
--40----------------------40g40----------------------|
-----------------------------------------------------|
--35-35-35-35-35-35-35-35----35-35-35-35-35-35-35-35-|

  
-----------------------------------------------------------------|
-----------------------------------------------------------------|
--50-50-------48----48-48-------47----47----47----47-47----------|
-----------------------------------------------------------------|
-----------------------------------------------------------------|
--35-35-35-35-35-35-35-35-35-35-35-35-35-35-35-35-35----35-35-35-|

 
--49----------57----------------------------------|
--------------------------------------------------|
--------------------------48----50----50-50-------|
--40----------40----------------------------------|
--------------------------------------------------|
--35-35-35-35-35-35-35-35-35-35-35-35-35-35-35-35-|


--------------55----------------55----------55----|
--------------------------------------------------|
--48----------50----50-50-50----50----50-50-50----|
--------------------------------------------------|
--------------------------------------------------|
--35-35-35-35-35-35-35-35-35-35-35-35-35-35-35-35-|

  
--55----------------57-------49-------49-------------57-------|
--------------------------------------------------------------|
--50-------48-48----48-------48-------48-------------47-------|
--------------------------------------------------------------|
--------------------------------------------------------------|
--35-35-35-35-35-35-35-35-35-35-35-35-35-35-35-35-35-35-35-35-|


--57----------------------------------------------|
--------------------------------------------------|
--------------------48-------48-------------------|
--40----------------------------------40----------|
--------------------------------------------------|
--35-35-35-35-35-35-35-35-35-35-35-35-35-35-35-35-|


-----------------57----57-------------------------|
--------------------------------------------------|
-----------------------------------50-48----------|
--40----40-40-------------40----------------40-40-|
--------------------------------------------------|
--35-35-35-35-35-35-35-35-35-35-35-35-35-35-35-35-|


--------------------------------------------------------|
--------------------------------------------------------|
--------48----------------48-48----------47-47----------|
-----40-------40-40-------------------------------------|
--------------------------------------------------------|
--35-35-35-35-35-35-35-35-35----35-35-35-35----35-35-35-|


--49----------------46----------------------------|
--------------------------------------------------|
-----------50----------------48----48-47----47----|
--40----------------------------------------------|
--------------------------------------------------|
--35-35-35-35-35-35-35-35-35-35-35-35-35-35-35-35-|

 
--------------------------------------------------|
--------------------------------------------------|
--47-47-------47-47----------------------50-48----|
--------------------------45----40-40-------------|
--------------------------------------------------|
--35-35-35-35-35-35-35-35-35-35-35-35-35-35-35-35-|

  
--------------------------------------------------------------------------|
--------------------------------------------------------------------------|
--48-------50-48----48----48-48-------47-47-------------------------------|
--------------------------------------------------45-45-------43-43-------|
--------------------------------------------------------------------------|
--35-35-35-35-35-35-35-35-35-35-35-35-35-35-35-35-35-35-35-35-35-35-35-35-|

 
--49----------------------------------------------|
--------------------------------------------------|
--------------------------------------------------|
--40-------40-40----40----40-40-------40----------|
--------------------------------------------------|
--35-35-35-35-35-35-35-35-35-35-35-35-35-35-35-35-|


--------------------------------------------------|
--------------------------------------------------|
--------------------------------------------------|
-----------------------------40-40-40-40----------|
--------------------------------------------------|
--35-35-35-35-35-35-35-35-35-35-35-35-35-35-35-35-|


----------------------------------------------------------------------------4
-----------------------------------------------------------------------------
-----------------------------------------------------------------------------
-----------40-(40)-(40)-(40)-(40)-40-40-(40)-(40)-(40)-(40)-40-40-(40)-(40)--
-----------------------------------------------------------------------------
--35-35-35-35-35-------------------------------------------------------------


----49-----------------------------------------------------------|
-----------------------------------------------------------------|
-----------------------------------------------------------------|
--------(40)-40-(40)-(40)-(40)-40-40-(40)-(40)-(40)-(40)-40-(40)-|
-----------------------------------------------------------------|
----35-------------------------------------35--------------------|


-----------------------------------------------------------------51-|
--------------------------------------------------------------------|
--------------------------------------------------------------------|
--(40)-(40)-40-40-(40)-40-(40)-(40)-40-(40)-(40)-40-(40)-(40)-40----|
--------------------------------------------------------------------|
-----------------------------------------------------------------35-|


-------------------------------------------------------|
-------------------------------------------------------|
--------------------------48---------------------------|
-----40-(40)-(40)-40-(40)------40-(40)-(40)-40-(40)-40-|
-------------------------------------------------------|
-------------------------------------------------------|

 
-------------------49-------------------------------------|
----------------------------------------------------------|
--50-----50-50--------------------------------------------|
-------------------40-(40)-(40)-(40)-(40)-(40)-40-(40)-40-|
----------------------------------------------------------|
-----35--------35-----------------------------------------|


---------------51-----------------------------------------------------------|
----------------------------------------------------------------------------|
----------------------------------------------------------------------------|
--40-(40)-(40)----(40)-(40)-40-(40)-(40)-40-(40)--40-(40)-(40)-(40)-(40)-40-|
----------------------------------------------------------------------------|
---------------35-----------------------------------------------------------|

  
-----------------------------------------51---51---51--------|
-------------------------------------------------------------|
-------------------------------------------------------------|
--40-(40)-(40)-(40)-(40)-40-40-(40)-(40)----------------(40)-|
-------------------------------------------------------------|
-----------------------------------------35---35---35--------|


--------------------------------------------|
--------------------------------------------|
--------------------------50---48-----------|
--40-(40)-(40)-40-40-(40)-----------47------|
--------------------------------------------|
-----------------------------------------35-|

 
--------------------------------------------------------|
--------------------------------------------------------|
--------------------------------------50-50-50-50-------|
--40-40--40-40--40--40-40-40-40-------------------------|
--------------------------------------------------------|
--------------------------------35-35-------------35-35-|

 
--------------------------------------------------------------------------|
--------------------------------------------------------------------------|
--48-48-48-48-------------------------------------------50-50-50-50-------|
--------------------47-47-47-47-------40-40-40-40-------------------------|
--------------------------------------------------------------------------|
--------------35-35-------------35-35-------------35-35-------------35-35-|


--------------------------------------49------------|
----------------------------------------------------|
--48-48-48-48---------------------------------------|
--------------------47-47-47-47-------40------40-40-|
----------------------------------------------------|
--------------35-35-------------35-35---------------|


--------------------------------------------------|
--------------------------------------------------|
-----50-50-48-48-47-47-45-------------------------|
--40----------------------45-45-45-45-45-45-45-45-|
--------------------------------------------------|
--------------------------------------------------|

  
--------------------------------------------------||
--------------------------------------------------||
--------------------------------------------------||
--------------------------------------40g40-------||
--43-43-43-43-43-43-43-43-43-43-43-43-------------||
--------------------------------------------35----||





Comments


Popular Gamma Ray tabs & chords
Land Of The Free Bass Tabs
Land Of The Free 2 Bass Tabs
Man On A Mission 2 Bass Tabs
Empress Chords
Farewell Chords
Abyss Of The Void Tabs
Fairytale Tabs
Guardians Of Mankind Tabs
Heaven Cant Wait Tabs
Watcher In The Sky Tabs


Song lyrics



↑ Back to top | Tablatures and chords are parodies/interpretations of the original songs. You may use it for private study, scholarship, research or language learning purposes only
© 2014 AZChords.com Contact us | Privacy policy | DMCA | Add/correct tabs | Request tabs | Top 50 tabs