» » »

Sesame Street Tabs (ver.1)

Artists:  A B C D E F G H I J K L M N O P Q R S T U V W X Y Z # 

Sesame Street Tabs (ver.1)

Game Over
Rating:
2/5 (1 vote)

Hard to play? Try these video lessons and learn fast.
                

this is gameovers verion of sesame street

my other tab wasn't finished here is the new and improve verion

if any1 has anyother gameover songs plzzzzzzzz e-mail me

later

----------------------|-------------------------------------------------------|
----------------------|-------------------------------------------------------|
------5-5--7-7--5-7-5-|-------------------------------------------------------|
-5-5--5-5--7-7--5-7-5-|-------------------------------------------------------|
-5-5--3-3--5-5--3-5-3-|-------------------------------------------------------|
-3-3------------------|-------------------------------------------------------|
 into

----------------------------|------------------------|------------------------|
----------------------------|------------------------|------------------------|
-------5--5-5--7--7--5--5-5-|-------5--5-5--7--9--11-|------------------------|
-5--5--5--5-5--7--7--5--5-5-|-5--5--5--5-5--7--9--11-|------------------------|
-5--5--3--3-3--5--5--3--3-3-|-5--5--3--3-3--5--7--9--|------------------------|
-3--3-----------------------|-3--3-------------------|------------------------|
 verse

----------------|-------------------------------------------------------------|
----------------|-------------------------------------------------------------|
-11--9--7--5----|-------------------------------------------------------------|
-11--9--7--5--5-|-------------------------------------------------------------|
-9---7--5--3--5-|-------------------------------------------------------------|
--------------3-|-------------------------------------------------------------|
 pre chorus

----------------------|-------------------------------------------------------|
----------------------|-------------------------------------------------------|
------5-5--7-7--5-7-5-|-------------------------------------------------------|
-5-5--5-5--7-7--5-7-5-|-------------------------------------------------------|
-5-5--3-3--5-5--3-5-3-|-------------------------------------------------------|
-3-3------------------|-------------------------------------------------------|
 chorus
            
Hard to play? Try these video lessons and learn fast. | Correct




comments powered by Disqus
↑ Back to top | Tablatures and chords are parodies/interpretations of the original songs. You may use it for private study, scholarship, research or language learning purposes only