» » »

Dead Tabs (ver.1)

Artists:  A B C D E F G H I J K L M N O P Q R S T U V W X Y Z # 

Dead Tabs (ver.1)

Game Over
Rating:
0/5 (0 votes)

Hard to play? Try these video lessons and learn fast.
                Heavily Distorted
Tuning: Drop C (CGCFAD)
/-slide
_-palm mute

*Intro* 2x's
1|---------------------------------------------------------||
2|---------------------------------------------------------||
3|-7-------7-------7-------7-8-7-------7-------7-------3-5-||
4|-x-------x-------x-------x-x-x-------x-------x-------x-x-||
5|-5-0-0-0-5-0-0-0-5-0-0-0-5-6-5-0-0-0-5-0-0-0-5-0-0-0-1-3-||
6|---0-0-0---0-0-0---0-0-0-------0-0-0---0-0-0---0-0-0-----||
     _____   _____   _____       _____   _____   _____   

*Verse*  8x's
1|----------------------||------|| 
2|----------------------||------||
3|----------------------||------||
4|----------------------||8-5-7-||
5|-1/3-00-0-0-0-0-0-0-0-||6-3-5-||
6|-1/3-00-0-0-0-0-0-0-0-||------||
       ________________


*Chorus* 8x's
1|----------------------|| 
2|----------------------||
3|----------------------||
4|----------------------||
5|-4-1-0-4-1-0-0-0-1-0--||
6|-4-1-0-4-1-0-0-0-1-0--||
   ___   ___   _ 


*Bridge 1* 8x's
1|-----------------------------|| 
2|-----------------------------||
3|-----------------------------||
4|-----------------------------||
5|-----------------------------||
6|-0-5-8-0-4-0-0-5-0-0-7-0-8-7-||

   
*Bridge 2* 8x's
1|-----------||-------||
2|-----------||-------||
3|-----------||-------||
4|-----------||-------||
5|-0-0-0-1-0-||-1-1-1-||
6|-0-0-0-1-0-||-1-1-1-|| 
   _____        _____


*Ending* 2x's
1|------------------|| 
2|------------------||
3|---7---7---7---7--||
4|-----5------------||
5|-5-------6---3----||
6|------------------||
            
Hard to play? Try these video lessons and learn fast. | Correct




comments powered by Disqus
↑ Back to top | Tablatures and chords are parodies/interpretations of the original songs. You may use it for private study, scholarship, research or language learning purposes only