>
 >
Zombie Blood Nightmare

Zombie Blood Nightmare Guitar Tabs

Gama Bomb - Zombie Blood Nightmare chords, tabs, tablatures, lyrics

Guitar lessons | Add/correct | Request | Top 50 tabs Artists:  A B C D E F G H I J K L M N O P Q R S T U V W X Y Z 0-9

Zombie Blood Nightmare Guitar Tabs – Gama Bomb

CD, Sheet music, Poster

Do you like Zombie Blood Nightmare? Share with your friends now
Tabs
Gama Bomb - Zombie Blood Nightmare 



Tuning: E

Riff 1
e|-----------------------------------|
B|-----------------------------------|
G|-----------------------------------|
D|-2----------------2----------------|
A|-0-000000-3p0-5h6-0-000000-6p0-3p0-|
E|-----------------------------------|
     ******           ******


e|-----------------------------------|
B|-----------------------------------|
G|-----------------------------------|
D|-2----------------3-1-----2-1------|
A|-0-000000-3p0-5h6-----3-2-----3p2--|
E|-----------------------------------|

Riff 2
e|-----------------------------------|
B|-----------------------------------|
G|-----------------------------------|
D|-3-1-----2-1-----3-1-----2-1-------|
A|-----3-2-----3-2-----3-2-----3-2---|
E|-----------------------------------|


e|-----------------------------------|
B|-----------------------------------|
G|-2---------------------------------|
D|-2---------------------------------|
A|-0---------------------------------|
E|-----------------------------------|

Riff 3
e|-----------------------------------|
B|-----------------------------------|
G|-----------------------------------|
D|---------7-8-6-7--------------8----|
A|-00000000--------00000000-8-7------|
E|-----------------------------------|
   ********        ********


e|-----------------------------------|
B|-----------------------------------|
G|-----------------------------------|
D|----------7-8-6-7----------3---3---|
A|-00000000---------00000000-1---1---|
E|-----------------------------------|
   ********         ********

Riff 4
e|-----------------------------------|
B|-----------------------------------|
G|-----------------------------------|
D|-----------------------------------|
A|----------4-3------------------3h4-|
E|-33333333-----6-3-33333333-6-3-----|
   ********         ********


e|-----------------------------------|
B|-----------------------------------|
G|-----------------------------------|
D|-----------------------------------|
A|----------4-3--------------5---3---|
E|-33333333-----6-3-33333333-3---1---|
   ********         ********

Riff 5
Guitar 1
e|-----------------------------------|
B|-----------------------------------|
G|-----------------------------------|
D|-----------------------------------|
A|----------4-3--------------4-3-----|
E|-33333333-----6-3-33333333-----6-3-|
   ********         ********

e|-----------------------------------|
B|-----------------------------------|
G|-----------------------------------|
D|-----------------------------------|
A|----------4-3---3tr4---------------|
E|-33333333-----6--------------------|
   ********

Guitar 2
e|-----------------------------------|
B|-----------------------------------|
G|-----------------------------------|
D|-----------------------------------|
A|----------4-3--------------4-3-----|
E|-3------------6-3--------------6-3-|


e|-----------------------------------|
B|-----------------------------------|
G|-----------------------------------|
D|-----------------------------------|
A|----------4-3---3tr4---------------|
E|--------------6--------------------|

Riff 6
e|---------------------------------------|
B|---------------------------------------|
G|---------------------------------------|
D|---------------------------------------|
A|-------------------------------4-3-----|
E|-1h3333333-1h3333333-1h3333333-----6---|
      ******    ******    ******

e|---------------------------------------|
B|---------------------------------------|
G|---------------------------------------|
D|---------------------------------------|
A|---------------------------------8--8--|
E|-1h3333333-1h33333333-1h33333333-6--6--|
      ******    *******    *******

Riff 7
e|-----------------------------------------|
B|-----------------------------------------|
G|-----------------------------------------|
D|-----------------------------------------|
A|-5---------4---------3-------------------|
E|---3333333---3333333---3333333-6-3333333-|
     *******   *******   *******   *******

e|--------------------------------------|
B|--------------------------------------|
G|--------------------------------------|
D|--------------------------------------|
A|-5---------4---------3---------8--8---|
E|---3333333---3333333---3333333-6--6---|
     *******   *******   ******* 

Riff 8
e|---------------------------------|
B|---------------------------------|
G|---------------------------------|
D|---------3---------------3-------|
A|---------1-------2-------1-------|
E|-0-0-0-0---0-0-0-0-0-0-0---0-0-0-|
   * * * *   * * *   * * *   * * *

e|---------------------------------|
B|---------------------------------|
G|---------------------------------|
D|---------3-----------------------|
A|-----2---1-------2-------3---3---|
E|-0-0-0-0---0-0-0-0-0-0-0-1---1---|
     * * *   * * *   * * *

Riff 9
e|-----------------------------------|
B|-----------------------------------|
G|-----------------------------------|
D|-5---------------------------------|
A|-5---------------------------------|
E|-3---------------------------------|

Song Structure
Riff 1  (2 Times)
Riff 2
Riff 3  (4 Times)
Riff 4  (2 Times)
Riff 5
Riff 6  (4 Times)
Riff 4  (2 Times)
Riff 6  (6 Times)
Riff 4  (2 Times)
Riff 7  (2 Times)
Riff 8  (2 Times)
Riff 6  (6 Times)
Riff 4  (2 Times)
Riff 9





Comments


Popular Gama Bomb tabs & chords
Bullet Belt Bass Tabs
Evil Voices Bass Tabs
Evil Voices Tabs
Global Warning Tabs
Hammer Slammer 1 Tabs
Hell Trucker Tabs
Mussolini Mosh Intro Tabs
Ocp Tabs
Sentenced To Thrash Tabs
Time Crime Tabs


Song lyrics



↑ Back to top | Tablatures and chords are parodies/interpretations of the original songs. You may use it for private study, scholarship, research or language learning purposes only
© 2014 AZChords.com Contact us | Privacy policy | DMCA | Add/correct tabs | Request tabs | Top 50 tabs