» » »

Time Crime Tabs (ver.1)

Artists:  A B C D E F G H I J K L M N O P Q R S T U V W X Y Z # 

Time Crime Tabs (ver.1)

Gama Bomb
Rating:
0/5 (0 votes)

Hard to play? Try these video lessons and learn fast.
                Gama Bomb - Time Crime



Tuning: E

Riff 1
Guitar 1
e|-----------------------------------|
B|-----------------------------------|
G|-----------------------------------|
D|---------10-----9------------------|
A|-----9---8------7-----10---9---3---|
E|-0-0-7-0----0-0---0-0-8--0-7-0-1-0-|
   * *   *    * *   * *    *   *   *

e|-----------------------------------|
B|-----------------------------------|
G|-----------------------------------|
D|---------10-----9------------------|
A|-----9---8------7-----10---9---3---|
E|-0-0-7-0----0-0---0-0-8--0-7-0-1---|
   * *   *    * *   * *    *   *

e|-----------------------------------|
B|-----------------------------------|
G|-----------------------------------|
D|---------10-----9------------------|
A|-----9---8------7-----10---9---3---|
E|-0-0-7-0----0-0---0-0-8--0-7-0-1-0-|
   * *   *    * *   * *    *   *   *

e|-----------------------------------|
B|-----------------------------------|
G|-----------------------------------|
D|---------10-----9------------------|
A|-----9---8------7-----10---9---3---|
E|-0-0-7-0----0-0---0-0-8--0-7-0-1---|
   * *   *    * *   * *    *   *

Guitar 2
e|-----------------------------------|
B|-----------------------------------|
G|-----------------------------------|
D|-----------------------------------|
A|-----------------------------------|
E|-----------------------------------|

e|-----------------------------------|
B|-----------------------------------|
G|-----------------------------------|
D|-----------------------------------|
A|-----------------------------------|
E|-----------------------------------|

e|-----------------------------------|
B|-----------------------------------|
G|-----------------------------------|
D|-----------------------------------|
A|-2-2-------------------------------|
E|-0-0-------------------------------|

e|-----------------------------------|
B|-----------------------------------|
G|-----------------------------------|
D|-----------------------------------|
A|-2-2-------------------------------|
E|-0-0--------------------------13\--|


Riff 2
e|-----------------------------------|
B|-----------------------------------|
G|-----------------------------------|
D|---------10-----9------------------|
A|-----9---8------7-----10---9---3---|
E|-0-0-7-0----0-0---0-0-8--0-7-0-1-0-|
   * *   *    * *   * *    *   *   *

e|-----------------------------------|
B|-----------------------------------|
G|-----------------------------------|
D|---------10-----9------------------|
A|-----9---8------7-----10---9---3---|
E|-0-0-7-0----0-0---0-0-8--0-7-0-1---|
   * *   *    * *   * *    *   *

Riff 3
e|----------------------------------|
B|----------------------------------|
G|----------------------------------|
D|-8---------------9----------------|
A|-6---------------7----------------|
E|-----000000000000----000000000000-|
       ************    ************

e|----------------------------------|
B|----------------------------------|
G|----------------------------------|
D|-8---------------3/4--------------|
A|-6---------------1/2---4/5---3/4--|
E|-----000000000000----0-2/3-0-1/2--|
       ************    *     *

Riff 4
e|----------------------------------|
B|----------------------------------|
G|----------------------------------|
D|-8---------------9----------------|
A|-6---------------7----------------|
E|---00000000000000--00000000000000-|
     **************  **************

e|----------------------------------|
B|----------------------------------|
G|----------------------------------|
D|-8---------------3/4--------------|
A|-6---------------1/2---4/5---3/4--|
E|---00000000000000----0-2/3-0-1/2--|
     **************    *     *


Riff 5
e|---------------------------------|
B|---------------------------------|
G|---------------------------------|
D|-------------4h5---------4h5-----|
A|---------------------------------|
E|-2-2-222-2-2-----2-2-222-----3---|
   * * *** * *     * * ***

e|-----------------------------------|
B|-----------------------------------|
G|-----------------------------------|
D|-----------------------------------|
A|-------------4h5---------6h7p6-----|
E|-2-2-222-2-2-----2-2-222-------3---|
   * * *** * *     * * ***

Riff 6
e|-----------------------------------------|
B|-----------------------------------------|
G|-----------------------------------------|
D|-------------8---8---------------8---7---|
A|-6650665066506---6---6650665066506---5---|
E|-----------------------------------------|
   ************        ************

Riff 7
e|-----------------------------------------|
B|-----------------------------------------|
G|-----------------------------------------|
D|-2-----------8---8---2-----------8---5---|
A|-0-00000000006---6---0-00000000006---3---|
E|-----------------------------------------|
     **********          **********


e|-----------------------------------------|
B|-----------------------------------------|
G|-----------------------------------------|
D|-2-----------8---8---2-----------5---2---|
A|-0-00000000006---6---0-00000000003---0---|
E|-----------------------------------------|
     **********          **********

Riff 8
e|-----------------------------------------|
B|-----------------------------------------|
G|-----------------------------------------|
D|-2---------------------------------------|
A|-0---------------------------------------|
E|-----------------------------------------|

Riff 9
e|-----------------------------------------|
B|-----------------------------------------|
G|-----------------------------------------|
D|-----------------------------------------|
A|-2---------------------------------------|
E|-0---------------------------------------|


Song Structure
Riff 1
Riff 2  (2 Times)
Riff 3  (2 Times)
Riff 4  (2 Times)
Riff 5  (4 Times)
Riff 3
Riff 4
Riff 5  (2 Times)
Riff 3
Riff 4
Riff 6
Riff 7
Riff 6
Riff 7
Riff 8
Riff 5  (2 Times)
Riff 3
Riff 4
Riff 3
Riff 4
Riff 9
            
Hard to play? Try these video lessons and learn fast. | Correct




comments powered by Disqus
↑ Back to top | Tablatures and chords are parodies/interpretations of the original songs. You may use it for private study, scholarship, research or language learning purposes only