» » »

Space Invaders Tabs (ver.1)

Artists:  A B C D E F G H I J K L M N O P Q R S T U V W X Y Z # 

Space Invaders Tabs (ver.1)

Gama Bomb
Rating:
0/5 (0 votes)

Tabs too difficult? Try these video lessons and learn fast.
                
x2
|-------------------------------------------------------------|
|-------------------------------------------------------------|
|-------------------------------------------------------------|
|-------------------------5--5--------------------------------|
|-------------------------3--3--------------------------5--5--|
|-2-3-5-2-3-5-2-3-5-2-3-5-------2-3-5-2-3-5-2-3-5-2-3-5-3--3--|
  * * * * * * * * * * * *       * * * * * * * * * * * *

|-------------------------------------------------------------|
|-------------------------------------------------------------|
|-------------------------------------------------------------|
|-------------------------5--5--------------------------------|
|-------------------------3--3--------------------------3--5--|
|-2-3-5-2-3-5-2-3-5-2-3-5-------2-3-5-2-3-5-2-3-5-2-3-5-1--3--|
  * * * * * * * * * * * *       * * * * * * * * * * * *


x2
|-------------------------------------------------------------|
|-------------------------------------------------------------|
|-------------------------------------------------------------|
|-------------------------5--5--------------------------------|
|-------------------------3--3--------------------------5--5--|
|-2---2-2-2-2-2-2-2-2-2-2-------2---2-2-2-2-2-2-2-2-2-2-3--3--|
  *   * * * * * * * * * *       *   * * * * * * * * * *

|-------------------------------------------------------------|
|-------------------------------------------------------------|
|-------------------------------------------------------------|
|-------------------------5--5--------------------------------|
|-------------------------3--3--------------------------3--5--|
|-2---2-2-2-2-2-2-2-2-2-2-------2---2-2-2-2-2-2-2-2-2-2-1--3--|
  *   * * * * * * * * * *       *   * * * * * * * * * *


x1
|-------------------------------------------------------------|
|-------------------------------------------------------------|
|-------------------------------------------------------------|
|-------------------------------------------------------------|
|-7-------10------9-------8-------7-------10------9-------8---|
|-5-------8-------7-------6-------5-------8-------7-------6---|

|--------------------------------------------------------------|
|--------------------------------------------------------------|
|--------------------------------------------------------------|
|--------------------------------------------------------------|
|-4-4-4-4-4-7-7-7-7-7-6-6-6-6-6-5-5-5-5-5-4-4-4-4-4-7-7-7-7-7--|
|--------------------------------------------------------------|
  * * * * * * * * * * * * * * * * * * * * * * * * * * * * * *

---------------------------------|
---------------------------------|
---------------------------------|
---------------------------------|
-6-6-6-6-6-5-5-5-5-5-4-4-4-4-4---|
---------------------------------|
 * * * * * * * * * * * * * * *


x2
|--------------------------------------------------------------|
|--------------------------------------------------------------|
|--------------------------------------------------------------|
|---------------------------5-4-2------------------------------|
|-2---3--3--3-5-2-2---3--3--3-2-0-2---3--3--3-5-2--------------|
|-0---2--2--2-3-0-0---2--2--------0---2--2--2-3-0--12-11-10-9--|
                                                   *  *  *  *

-------------------|
-------------------|
-------------------|
-------------------|
-------------------|
-8-7-6-5-----------|
 * * * *

|--------------------------------------------------------------|
|--------------------------------------------------------------|
|--------------------------------------------------------------|
|---------------------------5-4-2------------------------------|
|-2---3--3--3-5-2-2---3--3--3-2-0-2---3--3--3-5-2--------------|
|-0---2--2--2-3-0-0---2--2--------0---2--2--2-3-0--5-6-7-8-9---|
                                                   * * * * *

-------------------|
-------------------|
-------------------|
-------------------|
-------------------|
-10-11-12----------|
 *  *  *

\_GO UP & REPEAT WHOLE_/ [x1]


x1
|-------------------------------------------------------------|
|-------------------------------------------------------------|
|-------------------------------------------------------------|
|-------------------------------------------------------------|
|-2-----3-2-----3-2-----3-2-2-2-2-2-2-2-2-2-2-2-2-2-2-2-2-----|
|-0-----1-0-----1-0-----1-0-0-0-0-0-0-0-0-0-0-0-0-0-0-0-0-----|
                          * * * * * * * * * * * * * * * *

x4
|--------------------------------------------------------------|
|--------------------------------------------------------------|
|--------------------------------------------------------------|
|-----------------7---------7---------7-9----------------------|
|-2---3--3--3-5-2-5-5-5-5-5-5-5-5-5-5-5-7-2---3--3--3-5-2------|
|-0---2--2--2-3-0-------------------------0---2--2--2-3-0-0-0--|
                    * * * *   * * * *                     * *

-------------------|
-------------------|
-------------------|
-------------------|
-------------------|
-0-0-0-0-0-0-------|
 * * * * * *

x4
|-------------------------------------------------------------|
|-------------------------------------------------------------|
|-------------------------------------------------------------|
|-------------------------------------------------------------|
|-7------7------3---------------------------------------------|
|-5--5-0-5--5-0-1--1-0-1-0-1-0--------------------------------|
     * *    * *    * * * * * *


[PLAY STRANGE THINK]


x1
|-------------------------------------------------------------|
|-------------------------------------------------------------|
|-------------------------------------------------------------|
|-------------------------5--5--------------------------------|
|-------------------------3--3--------------------------5--5--|
|-2-3-5-2-3-5-2-3-5-2-3-5-------2-3-5-2-3-5-2-3-5-2-3-5-3--3--|
  * * * * * * * * * * * *       * * * * * * * * * * * *

|---------------------------------------------------------------|
|---------------------------------------------------------------|
|---------------------------------------------------------------|
|-------------------------5--5----------------------------------|
|-------------------------3--3--------------------------3--5-4--|
|-2-3-5-2-3-5-2-3-5-2-3-5-------2-3-5-2-3-5-2-3-5-2-3-5-1--3-2--|
  * * * * * * * * * * * *       * * * * * * * * * * * *

END






Legend
---------------------
*    - Palm Mute
x#   - repeat 3 times
            
Tabs too difficult? Try these video lessons and learn fast.


comments powered by Disqus
↑ Back to top | Tablatures and chords are parodies/interpretations of the original songs. You may use it for private study, scholarship, research or language learning purposes only