>
 >
Sentenced To Thrash

Sentenced To Thrash Guitar Tabs

Gama Bomb - Sentenced To Thrash chords, tabs, tablatures, lyrics

Guitar lessons | Add/correct | Request | Top 50 tabs Artists:  A B C D E F G H I J K L M N O P Q R S T U V W X Y Z 0-9

Sentenced To Thrash Guitar Tabs – Gama Bomb

CD, Sheet music, Poster

Do you like Sentenced To Thrash? Share with your friends now
Tabs
Gama Bomb - Sentenced To Thrash


Riff 1
e|----------------------------|
B|----------------------------|
G|----------------------------|
D|----------------------------|
A|----------------------2p1---|
E|-0-00-0-0-00-0-0-00-0-----3-|
   * ** * * ** * * ** *

e|----------------------------|
B|----------------------------|
G|----------------------------|
D|----------------------------|
A|---------------6p5---5p4----|
E|-0-00-0-0-00-0-----0-----6--|
   * ** * * ** *     *

e|----------------------------|
B|----------------------------|
G|----------------------------|
D|----------------------------|
A|----------------------------|
E|-0-00-0-0-00-0-0-00-0-3p0p3-|
   * ** * * ** * * ** *
  
e|----------------------------|
B|----------------------------|
G|----------------------------|
D|----------------------------|
A|---------------5/7-7-8\7-7--|
E|-0-00-0-0-00-0-3/5-5-6\5-5--|
   * ** * * ** *


Riff 2
Guitar 1
e|-----------------------------------|
B|-----------------------------------|
G|-----------------------------------|
D|-----------------------------------|
A|-2----------------2-----2------8\7-|
E|-0-00000000000000-0-00000-0000-6\5-|
     **************   ****  ****

e|-----------------------------------|
B|-----------------------------------|
G|-----------------------------------|
D|------------------8\7---7\6--------|
A|-2----------------6\5---5\4---7/8--|
E|-0-11111111111111-----0-----0-5/6--|
     **************     *     *

e|-----------------------------------|
B|-----------------------------------|
G|-----------------------------------|
D|-----------------------------------|
A|-2----------------2-----2------8\7-|
E|-0-00000000000000-0-00000-0000-6\5-|
     **************   ****  ****

e|-----------------------------------|
B|-----------------------------------|
G|-----------------------------------|
D|------------------8\7---7\6--------|
A|-2----------------6\5---5\4---7/8--|
E|-0-11111111111111-----0-----0-5/6--|
     **************     *     *

Guitar 2
e|-----------------------------------|
B|-----------------------------------|
G|-----------------------------------|
D|-----------------------------------|
A|-2---------------------------------|
E|-0---------------------------------|

e|-----------------------------------|
B|-----------------------------------|
G|-----------------------------------|
D|-----------------------------------|
A|-2---------------------------------|
E|-0---------------------------------|

e|-----------------------------------|
B|-----------------------------------|
G|-----------------------------------|
D|-----------------------------------|
A|-2----------------2-----2-----2-2--|
E|-0----------------0-----0-----0-0--|

e|-----------------------------------|
B|-----------------------------------|
G|-----------------------------------|
D|------------------8\7---7\6--------|
A|-2----------------6\5---5\4---7/8--|
E|-0--------------------0-----0-5/6--|
                        *     *

Riff 3
e|-----------------------------------|
B|-----------------------------------|
G|-----------------------------------|
D|-----------------------------------|
A|-2----------------2-----2------8\7-|
E|-0-00000000000000-0-00000-0000-6\5-|
     **************   ****  ****

e|-----------------------------------|
B|-----------------------------------|
G|-----------------------------------|
D|------------------8\7---7\6--------|
A|-2----------------6\5---5\4---7/8--|
E|-0-11111111111111-----0-----0-5/6--|
     **************     *     *

Riff 4
e|---------------------------------|
B|---------------------------------|
G|---------------------------------|
D|---------3---------------3---3---|
A|-2-------1-------2-------1---1---|
E|-0---000---------0---000---------|
       ***             ***


e|---------------------------------|
B|---------------------------------|
G|---------------------------------|
D|---------3-----------------------|
A|-2-------1-------------------0h1-|
E|-0---000---------3-1-0-3-1-0-----|
       ***         * * * * * * 

Riff 5
e|-----------------------------------------|
B|-----------------------------------------|
G|-----------------------------------------|
D|-4------------------4--------3p2p0-------|
A|-2-2222222222-3p2p0-2-222222-------3p2p0-|
E|-----------------------------------------|
     **********         ******

e|-------------------------------------|
B|-------------------------------------|
G|-------------------------------------|
D|-4------------------4--------5---5---|
A|-2-2222222222-3p2p0-2-222222-3---3---|
E|-------------------------------------|
     **********         ******

Riff 6
Guitar 1
e|---------------------------------|
B|---------------------------------|
G|---------------------------------|
D|---------------------------------|
A|-------------5h7-------------7h8-|
E|-000-600-500-----000-600-500-----|
   *** *** ***     *** *** *** 
 

e|---------------------------------|
B|---------------------------------|
G|---------------------------------|
D|---------------------------------|
A|-------------5h7-----------------|
E|-000-600-500-----000-5h6-000-3h5-|
   *** *** ***     ***     ***

e|---------------------------------|
B|---------------------------------|
G|---------------------------------|
D|---------------------------------|
A|-------------5h7-------------7h8-|
E|-000-600-500-----000-600-500-----|
   *** *** ***     *** *** *** 
 

e|---------------------------------|
B|---------------------------------|
G|---------------------------------|
D|---------------------------------|
A|-------------5h7-----------------|
E|-000-600-500-----000-5h6-000-3h5-|
   *** *** ***     ***     ***

Guitar 2
e|---------------------------------|
B|---------------------------------|
G|---------------------------------|
D|---------------------------------|
A|-2-------------------------------|
E|-0-------------------------------|

e|---------------------------------|
B|---------------------------------|
G|---------------------------------|
D|---------------------------------|
A|---------------------------------|
E|---------------------------------|

e|---------------------------------|
B|---------------------------------|
G|---------------------------------|
D|-2-------------------------------|
A|-2---------------2---------------|
E|-0---------------0---------------|

e|---------------------------------|
B|---------------------------------|
G|---------------------------------|
D|---------------------------------|
A|-----------------X\\\\\\\\\\\\\\-|
E|-----------------X\\\\\\\\\\\\\\-|

Riff 7
e|---------------------------------|
B|---------------------------------|
G|---------------------------------|
D|---------------------------------|
A|-------------5h7-------------7h8-|
E|-000-600-500-----000-600-500-----|
   *** *** ***     *** *** *** 
 

e|---------------------------------|
B|---------------------------------|
G|---------------------------------|
D|---------------------------------|
A|-------------5h7-----------------|
E|-000-600-500-----000-5h6-000-3h5-|
   *** *** ***     ***     ***

Riff 8
e|-----------------------------------|
B|-----------------------------------|
G|-----------------------------------|
D|-------------9-9-------------10-10-|
A|-------------7-7-------------8--8--|
E|-000-600-500-----000-600-500-------|
   *** *** ***     *** *** ***

e|---------------------------------|
B|---------------------------------|
G|---------------------------------|
D|-------------9-9------------------|
A|-------------7-7-----8-------5---|
E|-000-600-500-----000-6---000-3---|
   *** *** ***     ***     ***

Riff 9
e|---------------------------------|
B|---------------------------------|
G|---------------------------------|
D|---------------------------------|
A|---------------------------------|
E|-000-600-500-600-000-600-500-600-|
   *** *** *** *** *** *** *** ***
 
e|---------------------------------|
B|---------------------------------|
G|---------------------------------|
D|-------------------------3---3---|
A|-------------------------1---1---|
E|-000-600-500-600-000-000---------|
   *** *** *** *** *** ***
 
Riff 10
Guitar 1
e|----------------------------------|
B|----------------------------------|
G|----------------------------------|
D|------------------8\7---7\6-------|
A|-2----------------6\5---5\4---7/8-|
E|-0-11111111111111-----0-----0-5/6-|
     **************     *     *

Guitar 2
e|----------------------------------|
B|----------------------------------|
G|----------------------------------|
D|------------------8\7---7\6-------|
A|-2----------------6\5---5\4---7/8-|
E|-0--------------------0-----0-5/6-|
                        *     *

Riff 11
e|---------------------------------|
B|---------------------------------|
G|---------------------------------|
D|---------3---------------3---3---|
A|---------1---------------1---1---|
E|-000-000---------000-000---------|
   *** ***         *** ***

e|---------------------------------|
B|---------------------------------|
G|---------------------------------|
D|---------3-----------------------|
A|---------1-------------------0h1-|
E|-000-000---------3-1-0-3-1-0-----|
   *** ***         * * * * * * 

Riff 12
e|-------------------------------------------------|
B|-------------------------------------------------|
G|-------------------------------------------------|
D|-------------------------------------------------|
A|-------------0h1-------------0h1-------------0h1-|
E|-3-1-0-3-1-0-----3-1-0-3-1-0-----3-1-0-3-1-0-----|
   * * * * * *     * * * * * *     * * * * * * 

e|---------------------------------|
B|---------------------------------|
G|---------------------------------|
D|---------------------------------|
A|-2-------------------------------|
E|-0-------------------------------|


Song Structure
Riff 1  (4 Times)
Riff 2
Riff 3  (4 Times)
Riff 4  (2 Times)
Riff 3  (2 Times)
Riff 5  (2 Times)
Riff 3  (2 Times)
Riff 5  (2 Times)
Riff 6
Riff 7  (2 Times)
Riff 8  (2 Times)
Riff 9  (4 Times)
Riff 10
Riff 3  (2 Times)
Riff 5  (2 Times)
Riff 4  (2 Times)
Riff 11 (2 Times)
Riff 12





Comments


Popular Gama Bomb tabs & chords
Evil Voices Bass Tabs
Mussolini Mosh Bass Tabs
Terrorscope Bass Tabs
Evil Voices Tabs
Global Warning Tabs
Hammer Slammer Tabs
Hell Trucker Tabs
Mussolini Mosh Intro Tabs
Ocp Tabs
Space Invaders Tabs


Song lyrics



↑ Back to top | Tablatures and chords are parodies/interpretations of the original songs. You may use it for private study, scholarship, research or language learning purposes only
© 2014 AZChords.com Contact us | Privacy policy | DMCA | Add/correct tabs | Request tabs | Top 50 tabs