» » »

Mussolini Mosh Bass tabs (ver.1)

Artists:  A B C D E F G H I J K L M N O P Q R S T U V W X Y Z # 

Mussolini Mosh Bass tabs (ver.1)

Gama Bomb
Rating:
0/5 (0 votes)

Hard to play? Try these video lessons and learn fast.
                


||--------------|
||--------------|
||------1-0-1---|
||0------------0|

||---------------------------------------------------------|
||---------------------------------------------------------| x3
||----------------------1-0-1-----------------1-0----------|
||0--000-3-4-0-0-0--000--------0--000-3-4-0-0-----0-0-1-3-1|

||-----------------------------------------------------|
||-----------2-----------------------------------------| x3
||-------------1--1-1-1-1---1--1-1-1-1-----------------|
||0--0-0-0-0--------------3------------3-0--0-0-0-0-0-0|

||----------------------------------------|
||-----------2----------------------------|
||-------------1--1-1-1-1---1--1-1-1-1----|
||0--0-0-0-0--------------3------------3-0|

||----------------------------------------------|
||----------------------------------------------| x2
||-----------1-----------------1-0--------------|
||0-0-4--0-0----0-0000000000-3------0-0000000000|

||--------------------------------|
||--------------------------------| 
||-----------1-----------------1-0|
||0-0-4--0-0----0-0000000000-3----|

||-----------------------------------------------------|
||-----------2-----------------------------------------| x3
||-------------1--1-1-1-1---1--1-1-1-1-----------------|
||0--0-0-0-0--------------3------------3-0--0-0-0-0-0-0|

||----------------------------------------|
||-----------2----------------------------|
||-------------1--1-1-1-1---1--1-1-1-1----|
||0--0-0-0-0--------------3------------3-0|

||---------------|
||---------------|
||-----------1---|
||0-0-4--0-0----0|
            
Hard to play? Try these video lessons and learn fast. | Correct




comments powered by Disqus
↑ Back to top | Tablatures and chords are parodies/interpretations of the original songs. You may use it for private study, scholarship, research or language learning purposes only