» » »

Hell Trucker Tabs (ver.1)

Artists:  A B C D E F G H I J K L M N O P Q R S T U V W X Y Z # 

Hell Trucker Tabs (ver.1)

Gama Bomb
Rating:
0/5 (0 votes)

Hard to play? Try these video lessons and learn fast.
                
x6 (4, stop and 2 more.)
|--------------------------------------------------------------|
|--------------------------------------------------------------|
|--------------------------------------------------------------|
|--------------------------------------------------------------|
|-2-3-2--2-2-2-2-2-2-2-2-2-2-2--2-3-2--2-2-2-2-2-2-2-2-2-2-2---|
|--------------------------------------------------------------|
  * * *  * * * * * * * * * * * *  * * *  * * * * * * * * * *

|--------------------------------------------------------------|
|--------------------------------------------------------------|
|--------------------------------------------------------------|
|-------------------------------4---5---4---2------------------|
|-2-3-2--2-2-2-2-2-2-2-2-2-2-2--2---3---2---0------------------|
|--------------------------------------------------------------|
  * * *  * * * * * * * * * * * *  * * *  * * * * * * * * * *


x4
|--------------------------------------------------------------|
|--------------------------------------------------------------|
|--------------------------------------------------------------|
|--------------------------------------------------------------|
|-0-------------5-4-------------------------7-8-8-7------------|
|-2-2-2-2-2-2-2-3-2-2-2-2-2-2-2-2-2-2-2-2-2-5-6-5-6------------|
    * * * * * *     * * * * * * * * * * * * 


x2
|--------------------------------------------------------------|
|--------------------------------------------------------------|
|--------------------------------------------------------------|
|--------------------------------------------------------------|
|-2-3-2--2-2-2-2-2-2-2-2-2-2-2--2-3-2--2-2-2-2-2-2-2-2-2-2-2---|
|--------------------------------------------------------------|
  * * *  * * * * * * * * * * * *  * * *  * * * * * * * * * *

|--------------------------------------------------------------|
|--------------------------------------------------------------|
|--------------------------------------------------------------|
|-------------------------------4---5---4---2------------------|
|-2-3-2--2-2-2-2-2-2-2-2-2-2-2--2---3---2---0------------------|
|--------------------------------------------------------------|
  * * *  * * * * * * * * * * * *  * * *  * * * * * * * * * *


x2 (I am a HELL TRUCKER!!!)
|--------------------------------------------------------------|
|--------------------------------------------------------------|
|--------------------------------------------------------------|
|-------------------------------5--5---------------------------|
|-2-----------------------------3--3--2-5-4-2------------------|
|-0-0-0-0-0-0-0-0-0-0-0-0-0-0-0-------0-3-2-0------------------|
    * * * * * * * * * * * * * *                

|--------------------------------------------------------------|
|--------------------------------------------------------------|
|--------------------------------------------------------------|
|------------------------------5--5----------------------------|
|------------------------------3--3--2-5-4-2-------------------|
|--0-0-0-0-0-0-0-0-0-0-0-0-0-0-------0-3-2-0-------------------|
   * * * * * * * * * * * * * *                

|--------------------------------------------------------------|
|--------------------------------------------------------------|
|--------------------------------------------------------------|
|------------------------------5--5----------------------------|
|------------------------------3--3--2-5-4-5-------------------|
|--0-0-0-0-0-0-0-0-0-0-0-0-0-0-------0-3-2-3-------------------|
   * * * * * * * * * * * * * *                

|--------------------------------------------------------------|
|--------------------------------------------------------------|
|--------------------------------------------------------------|
|------------------------------2--2----------------------------|
|------------------------------0--0--2-5-4-2-------------------|
|--3-3-3-3-3-3-3-3-3-3-3-3-3-3-------0-3-2-0-------------------|
   * * * * * * * * * * * * * *                


x4 (Base Solo)
|--------------------------------------------------------------|
|--------------------------------------------------------------|
|--------------------------------------------------------------|
|--------------------------------------------------------------|
|-2-----------------------------2------------------------------|
|-0-0-0-0-0-0-0-0-0-0-0-0-0-0-0-0-0-0-0-0-0-0-0-0-0-0-0-0-0-0--|
    * * * * * * * * * * * * * *   * * * * * * * * * * * * * *  

|--------------------------------------------------------------|
|--------------------------------------------------------------|
|--------------------------------------------------------------|
|-------------------------------2-------------5-4--5-7---------|
|-2-----------------------------0-0-0-0-0-0-0-3-2--3-5---------|
|-0-0-0-0-0-0-0-0-0-0-0-0-0-0-0--------------------------------|
    * * * * * * * * * * * * * *   * * * * * *


x2
|--------------------------------------------------------------|
|--------------------------------------------------------------|
|--------------------------------------------------------------|
|--------------------------------------------------------------|
|-2-3-2--2-2-2-2-2-2-2-2-2-2-2--2-3-2--2-2-2-2-2-2-2-2-2-2-2---|
|--------------------------------------------------------------|
  * * *  * * * * * * * * * * * *  * * *  * * * * * * * * * *

|--------------------------------------------------------------|
|--------------------------------------------------------------|
|--------------------------------------------------------------|
|-------------------------------4---5---4---2------------------|
|-2-3-2--2-2-2-2-2-2-2-2-2-2-2--2---3---2---0------------------|
|--------------------------------------------------------------|
  * * *  * * * * * * * * * * * *  * * *  * * * * * * * * * *


x2 (I am a HELL TRUCKER!!!)
|--------------------------------------------------------------|
|--------------------------------------------------------------|
|--------------------------------------------------------------|
|-------------------------------5--5---------------------------|
|-2-----------------------------3--3--2-5-4-2------------------|
|-0-0-0-0-0-0-0-0-0-0-0-0-0-0-0-------0-3-2-0------------------|
    * * * * * * * * * * * * * *                

|--------------------------------------------------------------|
|--------------------------------------------------------------|
|--------------------------------------------------------------|
|------------------------------5--5----------------------------|
|------------------------------3--3--2-5-4-2-------------------|
|--0-0-0-0-0-0-0-0-0-0-0-0-0-0-------0-3-2-0-------------------|
   * * * * * * * * * * * * * *                

|--------------------------------------------------------------|
|--------------------------------------------------------------|
|--------------------------------------------------------------|
|------------------------------5--5----------------------------|
|------------------------------3--3--2-5-4-5-------------------|
|--0-0-0-0-0-0-0-0-0-0-0-0-0-0-------0-3-2-3-------------------|
   * * * * * * * * * * * * * *                

|--------------------------------------------------------------|
|--------------------------------------------------------------|
|--------------------------------------------------------------|
|------------------------------2--2----------------------------|
|------------------------------0--0--2-5-4-2-------------------|
|--3-3-3-3-3-3-3-3-3-3-3-3-3-3-------0-3-2-0-------------------|
   * * * * * * * * * * * * * *                

END


Please, don't remove the email.
            
Hard to play? Try these video lessons and learn fast. | Correct




comments powered by Disqus
↑ Back to top | Tablatures and chords are parodies/interpretations of the original songs. You may use it for private study, scholarship, research or language learning purposes only