» » »

Gama Bomb, Global Warning Tabs (ver.1)

Artists:  A B C D E F G H I J K L M N O P Q R S T U V W X Y Z # 

Global Warning Tabs (ver.1)

Gama Bomb Tabs
Rating:
0/5 (0 votes)
Global Warning lessons Tabs too difficult? Try these video lessons and learn fast
                Gama Bomb - Global Warning



Tuning: E

Riff 1
e|------------------------------------------------|
B|------------------------------------------------|
G|------------------------------------------------|
D|------------------------------------------------|
A|------------------------------------------------|
E|-0-0-0-2-0-0-3-0-0-0-0-0-2-0-0-3-0-0-4-0-0-5h6--|
   * * * * * * * * * * * * * * * * * * * * *

e|------------------------------------------------|
B|------------------------------------------------|
G|------------------------------------------------|
D|------------------------------------------------|
A|-------------------------8-----7-----------4/6--|
E|-0-0-0-2-0-0-3-0-0-0-0-0-6-----5-----0-0-0-3/4--|
   * * * * * * * * * * * *             * * *

Riff 2
e|------------------------------------------------|
B|------------------------------------------------|
G|------------------------------------------------|
D|------------------------------------------------|
A|------------------------------------------------|
E|-2-2-2-3-2-2-4-2-2-2-2-2-3-2-2-4-2-2-5-2-2-7h8--|
   * * * * * * * * * * * * * * * * * * * * *

e|------------------------------------------------|
B|------------------------------------------------|
G|------------------------------------------------|
D|------------------------------------------------|
A|-------------------------10----9-----------7/8--|
E|-2-2-2-3-2-2-4-2-2-2-2-2-8-----7-----2-2-2-5/6--|
   * * * * * * * * * * * *             * * * 

Riff 3
e|---------------------------------|
B|---------------------------------|
G|---------------------------------|
D|-2------------------3------------|
A|-0--000-0h3h5h6p5p3-1--111111111-|
E|---------------------------------|
      ***                *********  

e|---------------------------------|
B|---------------------------------|
G|---------------------------------|
D|-2-------------------------------|
A|-0--000-0h3h5h6p5p3-5-----3------|
E|--------------------3--3331--111-|
      ***                ***   ***   

Riff 4
Guitar 1
e|---------------------------------|
B|---------------------------------|
G|-2-------------------------------|
D|-2---------------------------6---|
A|-0---------------------------6---|
E|-----------------------------4---|

Guitar 2
e|-----------------------------------|
B|-----------------------------------|
G|---------2-1---------1-------------|
D|-----------------3-2---3-----------|
A|-0---0-0-----0-0---------2h3p2-----|
E|-------------------------------4---|
   *   * *     * *      

Riff 5
e|-------------------------|
B|-------------------------|
G|-------------------------|
D|---------2-1---1---------|
A|-0---0-0-----3---3-2-----|
E|---------------------4---|
   *   * *

Riff 6
e|-----------------------------------|
B|-----------------------------------|
G|-----------------------------------|
D|-----------------------------------|
A|-7------------5/8\7------------7\5-|
E|-5-5555555555-3/6\5-5555555555-5\3-|
     **********       **********


e|----------------------------------|
B|----------------------------------|
G|----------------------------------|
D|----------------------------------|
A|-4--------------------------------|
E|-2-222222222222222222222222222222-|
     ******************************

Riff 7
e|-----------------------------------|
B|-----------------------------------|
G|-----------------------------------|
D|-----------------------------------|
A|-7------------5/8\7------------7\5-|
E|-5-5555555555-3/6\5-5555555555-5\3-|
     **********       **********


e|----------------------------------|
B|----------------------------------|
G|----------------------------------|
D|------------------3---------------|
A|-4----------------3---------------|
E|-2-22222222222222-1---------------|
     **************

Riff 8
e|-----------------------------------|
B|-----------------------------------|
G|-2---------------------------------|
D|-2---------------------------------|
A|-0---------------------------------|
E|-----------------------------------|

Song Structure
Riff 1  (2 Times)
Riff 2
Riff 1
Riff 4  (2 Times)
Riff 1  (4 Times)
Riff 2
Riff 1
Riff 3  (2 Times)
Riff 4  (4 Times)
Riff 5  (4 Times)
Riff 6  (3 Times)
Riff 7
Riff 1  (4 Times)
Riff 2
Riff 1
Riff 3  (4 Times)
Riff 8
            
Submit corrections

comments powered by Disqus
↑ Back to top | Gama Bomb Tabs for Global Warning. Lyrics for acoustic guitar and electric guitar. Tablatures and chords are parodies/interpretations of the original songs. You may use it for private study, scholarship, research or language learning purposes only