>
 >
Final Fight

Final Fight Guitar Tabs

Gama Bomb - Final Fight chords, tabs, tablatures, lyrics

Guitar lessons | Add/correct | Request | Top 50 tabs Artists:  A B C D E F G H I J K L M N O P Q R S T U V W X Y Z 0-9

Final Fight Guitar Tabs – Gama Bomb

CD, Sheet music, Poster

Do you like Final Fight? Share with your friends now
Tabs
Gama Bomb - Final Fight



Tuning: E

Riff 1
Guitar 1
e|------------------------------------|
B|------------------------------------|
G|------------------------------------|
D|------------------------------------|
A|-0000-1p0-0000-1p0-0000-1p0-3p0-5h6-|
E|------------------------------------|
   ****     ****     ****

e|------------------------------------|
B|------------------------------------|
G|------------------------------------|
D|----------------------------3---2---|
A|-0000-1p0-0000-1p0-0000-1p0---------|
E|------------------------------------|
   ****     ****     ****

e|------------------------------------|
B|------------------------------------|
G|------------------------------------|
D|------------------------------------|
A|-0000-1p0-0000-1p0-0000-1p0-3p0-5h6-|
E|------------------------------------|
   ****     ****     ****

e|------------------------------------|
B|------------------------------------|
G|------------------------------------|
D|----------------------------3---2---|
A|-0000-1p0-0000-1p0-0000-1p0---------|
E|------------------------------------|
   ****     ****     ****

Guitar 2
e|------------------------------------|
B|------------------------------------|
G|------------------------------------|
D|-2----------------------------------|
A|-0----------------------------------|
E|------------------------------------|



e|------------------------------------|
B|------------------------------------|
G|------------------------------------|
D|----------------------------10--9---|
A|----------------------------8---7---|
E|------------------------------------|



e|------------------------------------|
B|------------------------------------|
G|------------------------------------|
D|-2----------------------------------|
A|-0--------------------------3p0-5h6-|
E|------------------------------------|



e|------------------------------------|
B|------------------------------------|
G|------------------------------------|
D|-2-----------------2--------10--9---|
A|-0-----------------0--------8---7---|
E|------------------------------------|


Riff 2
e|------------------------------------|
B|------------------------------------|
G|------------------------------------|
D|------------------------------------|
A|-0000-1p0-0000-1p0-0000-1p0-3p0-5h6-|
E|------------------------------------|
   ****     ****     ****

e|------------------------------------|
B|------------------------------------|
G|------------------------------------|
D|----------------------------3---2---|
A|-0000-1p0-0000-1p0-0000-1p0---------|
E|------------------------------------|
   ****     ****     ****

Riff 3
e|-------------------------------------|
B|-------------------------------------|
G|-------------------------------------|
D|-2------------------2--------3---5---|
A|-0-0000000000-1p000-0-000000-1---3---|
E|-------------------------------------|
     **********    **   ******


e|-------------------------------------|
B|-------------------------------------|
G|-------------------------------------|
D|-2------------------2--------8---7---|
A|-0-0000000000-1p000-0-000000-6---5---|
E|-------------------------------------|
     **********    **   ******

e|-------------------------------------|
B|-------------------------------------|
G|-------------------------------------|
D|-2------------------2--------3---5---|
A|-0-0000000000-1p000-0-000000-1---3---|
E|-------------------------------------|
     **********    **   ******

e|-------------------------------------|
B|-------------------------------------|
G|-------------------------------------|
D|-2------------------2--------3---3---|
A|-0-0000000000-1p000-0-000000-1---1---|
E|-------------------------------------|
     **********    **   ******

Riff 4
e|-----------------------------------|
B|-----------------------------------|
G|-----------------------------------|
D|-2--------5h7-----2--------3---5---|
A|-0-000000-----00000-000000-1---3---|
E|-----------------------------------|
     ******     ****  ******

e|-----------------------------------|
B|-----------------------------------|
G|-----------------------------------|
D|-2--------5h7p5---2--------8---7---|
A|-0-000000-------6-0-000000-6---5---|
E|-----------------------------------|
     ******           ******

e|-----------------------------------|
B|-----------------------------------|
G|-----------------------------------|
D|-2--------5h7-----2--------3---5---|
A|-0-000000-----00000-000000-1---3---|
E|-----------------------------------|
     ******     ****  ******

e|-----------------------------------|
B|-----------------------------------|
G|-----------------------------------|
D|-2--------5h7p5---2--------3---3---|
A|-0-000000-------6-0-000000-1---1---|
E|-----------------------------------|
     ******           ****** 


Riff 5
e|-----------------------------------|
B|-----------------------------------|
G|-----------------------------------|
D|-2--------5h7-----2--------3---5---|
A|-0-000000-----00000-000000-1---3---|
E|-----------------------------------|
     ******     ****  ******

e|-----------------------------------|
B|-----------------------------------|
G|-----------------------------------|
D|-2--------5h7p5---2--------8---7---|
A|-0-000000-------6-0-000000-6---5---|
E|-----------------------------------|
     ******           ******

e|-----------------------------------|
B|-----------------------------------|
G|-----------------------------------|
D|-2--------5h7-----2--------3---5---|
A|-0-000000-----00000-000000-1---3---|
E|-----------------------------------|
     ******     ****  ******

e|-----------------------------------|
B|-----------------------------------|
G|-----------------------------------|
D|-2--------5h7p5----8---7---5---7---|
A|-0-000000-------6--6---5---3---5---|
E|-----------------------------------|
     ******           

Riff 6
e|---------------------------------------|
B|---------------------------------------|
G|---------------------------------------|
D|---------------------------------------|
A|---------------------------------------|
E|-222222-3p2p0-3p2p0-222222-3p2p0-5p3p0-|
   *****              ******

e|---------------------------------------|
B|---------------------------------------|
G|---------------------------------5-----|
D|---------------------------------5-----|
A|---------------------------------3-----|
E|-222222-3p2p0-3p2p0-222222-3p2p0-------|
   ******             ******

Riff 7
e|--------------------------------------|
B|--------------------------------------|
G|--------------------------------------|
D|-4------------------------------------|
A|-4------------------------------------|
E|-2------------------------------------|


Riff 8
e|-----------------------------------------------------|
B|-----------------------------------------------------|
G|-----------------------------------------------------|
D|-2-----------2-----3---5---2-----------2-----8---7---|
A|-0-000000000-0-000-1---3---0-000000000-0-000-6---5---|
E|-----------------------------------------------------|
     *********   ***           *********   ***

e|-----------------------------------------------------|
B|-----------------------------------------------------|
G|-----------------------------------------------------|
D|-2-----------2-----3---5---2-----------2-----3---3---|
A|-0-000000000-0-000-1---3---0-000000000-0-000-1---1---|
E|-----------------------------------------------------|
     *********   ***           *********   ***

Riff 9
e|------------------------------------|
B|------------------------------------|
G|------------------------------------|
D|-2----------------------------------|
A|-0----------------------------------|
E|------------------------------------|


Song Structure
Riff 1
Riff 2  (4 Times)
Riff 3
Riff 4
Riff 5
Riff 6  (2 Times)
Riff 7
Riff 2  (4 Times)
Riff 6  (2 Times)
Riff 8
Riff 4
Riff 5
Riff 6  (2 Times)
Riff 7
Riff 2  (4 Times)
Riff 6  (2 Times)
Riff 8
Riff 9





Comments


Popular Gama Bomb tabs & chords
Bullet Belt Bass Tabs
Bullet Belt Intro Tabs
Evil Voices Tabs
Global Warning Tabs
Hammer Slammer Tabs
Hammer Slammer 1 Tabs
Hell Trucker Tabs
Sentenced To Thrash Tabs
Time Crime Tabs
Zombie Blood Nightmare Tabs


Song lyrics



↑ Back to top | Tablatures and chords are parodies/interpretations of the original songs. You may use it for private study, scholarship, research or language learning purposes only
© 2014 AZChords.com Contact us | Privacy policy | DMCA | Add/correct tabs | Request tabs | Top 50 tabs