» » »

Gama Bomb, Evil Voices Tabs (ver.1)

Artists:  A B C D E F G H I J K L M N O P Q R S T U V W X Y Z # 

Evil Voices Tabs (ver.1)

Gama Bomb Tabs
 Rating:
4/5 (4 votes)
Evil Voices lessons Tabs too difficult? Try these video lessons and learn fast
                Gama Bomb - Evil Voices



Tuning: E

Riff 1
Guitar 1
e|-------------------------------------|
B|-------------------------------------|
G|-------------------------------------|
D|-9------------------9------------4---|
A|-7------5p4p0-5p4p0-7------5p4p0-2---|
E|----000----------------000-----------|
      ***                ***

e|-------------------------------------|
B|-------------------------------------|
G|-------------------------------------|
D|-9------------10----9--------------4-|
A|-7------5p4p0-8-----7--5p4p0-4p3p0-2-|
E|----000------------------------------|
      ***                

Guitar 2
e|-------------------------------------|
B|-------------------------------------|
G|-------------------------------------|
D|-9------------------9------------4---|
A|-7------8p7p0-8p7p0-7------5p4p0-2---|
E|----000----------------000-----------|
      ***                ***

e|-------------------------------------|
B|-------------------------------------|
G|-------------------------------------|
D|-9------------10----9--------------4-|
A|-7------8p7p0-8-----7--5p4p0-4p3p0-2-|
E|----000------------------------------|
      ***                

Riff 2
e|-----------------------------------|
B|-----------------------------------|
G|-----------------------------------|
D|-----------------------------------|
A|---------------------------0-3-2-0-|
E|-1-000000-1-00003-1-111111---------|
     ******   ****    ******

e|-----------------------------------|
B|-----------------------------------|
G|-----------------------------------|
D|---------------------------0-3-2-0-|
A|-----------------------------------|
E|-1-000000-1-00003-1-111111---------|
     ******   ****    ******

Riff 3
e|-------------------------------|
B|-------------------------------|
G|-------------------------------|
D|---------------------------2---|
A|-7---7/8-7-6-5/6-----------2---|
E|-5---5/6-5-4-3/4-44444444440---|
                   **********

e|-------------------------------|
B|-------------------------------|
G|-------------------------------|
D|---------------------------2---|
A|-7--7--7/8--7--6-----------2---|
E|-5--5--5/6--5--4-44444444440---|
                   **********

Riff 4
e|--------------------------------------|
B|--------------------------------------|
G|--------------------------------------|
D|----------------------------3-3-3p2p0-|
A|-7-7------7-7------7-7----------------|
E|-----0000-----0000-----0000-----------|
       ****     ****     ****

e|---------------------------------------|
B|---------------------------------------|
G|---------------------------------------|
D|-------------------3-3-3p2p0-----------|
A|-7-7------7-7----------------3-3-3p2p0-|
E|-----0000-----0000---------------------|
       ****     ****           

Riff 5
e|-----------------------------------|
B|-----------------------------------|
G|-----------------------------------|
D|----------7---6---7----------------|
A|-3-000000---8---7---000000---------|
E|--------------------------44444444-|
   * ******           **************

e|-------------------------------------|
B|-------------------------------------|
G|-------------------------------------|
D|----------6h7p6---6-7----------------|
A|-3-000000-------8-----000000-4-3-0-5-|
E|-------------------------------------|
   * ******             ****** * * * *

Riff 6
Guitar 1
e|-----------------------------------|
B|-----------------------------------|
G|-----------------------------------|
D|-----------------------------------|
A|---------------------------0-3-2-0-|
E|-1-000000-1-00003-1-111111---------|
     ******   ****    ******

e|-----------------------------------|
B|-----------------------------------|
G|-----------------------------------|
D|---------------------------0-3-2-0-|
A|-----------------------------------|
E|-1-000000-1-00003-1-111111---------|
     ******   ****    ******

Guitar 2
e|-----------------------------------|
B|-----------------------------------|
G|-----------------------------------|
D|-----------------------------------|
A|---------------------------0-3-2-0-|
E|-1-000000-1-00003-1-111111---------|
     ******   ****    ******

e|-----------------------------------|
B|-----------------------------------|
G|-----------------------------------|
D|---------------------------0-3-2-0-|
A|-3--------------5-3----------------|
E|-1--------------3-1----------------|


Riff 7
e|-----------------------------------|
B|-----------------------------------|
G|-----------------------------------|
D|-2---------------------------------|
A|-2---------------------------------|
E|-0---------------------------------|

Song Structure
Riff 1  (4 Times)
Riff 2  (4 Times)
Riff 3  (2 Times)
Riff 2  (4 Times)
Riff 3  (4 Times)
Riff 4  (4 Times)
Riff 5  (2 Times)
Riff 2  
Riff 6
Riff 2  (2 Times)
Riff 3  (4 Times)
Riff 7  
            
Submit corrections

comments powered by Disqus
↑ Back to top | Gama Bomb Tabs for Evil Voices. Lyrics for acoustic guitar and electric guitar. Tablatures and chords are parodies/interpretations of the original songs. You may use it for private study, scholarship, research or language learning purposes only