>
 >
Bullet Belt

Bullet Belt Bass Tabs

Gama Bomb - Bullet Belt chords, tabs, tablatures, lyrics

Guitar lessons | Add/correct | Request | Top 50 tabs Artists:  A B C D E F G H I J K L M N O P Q R S T U V W X Y Z 0-9

Bullet Belt Bass Tabs – Gama Bomb

CD, Sheet music, Poster

Do you like Bullet Belt? Share with your friends now
Bass Tabs


||-------------|   ||------|
||-------------|x3 ||------|
||7-----7-----7|   ||0----2|
||--000---000--|   ||------|

||--------------------------------|
||--------------------------------|x3
||7-----8-----10-8-7-----7-----3-5|
||--000---0-0--------000---0-0----|

||--------------------------------|
||--------------------------------|
||7-----8-----10-8-7-----7-----3-5|
||--000---0-0--------000---0-0----|

||-------------------------------------------------------|
||-------------------------------------------------------|x4
||----------111111444444-7-----8-----10-8-7-----7-----3-5|
||2222222222---------------000---0-0--------000---0-0----|  

||--------------------------------|
||--------------------------------|x4
||7-----8-----10-8-7-----7-----3-5|
||--000---0-0--------000---0-0----|

||----------------------------------------|
||----------------------------------------|x4
||---------------------------------------5|
||2-2222-222-3-2-2222-222-3-2-2222-222-3--|

||--------------------------------|
||--------------------------------|x4
||7-----8-----10-8-7-----7-----3-5|
||--000---0-0--------000---0-0----|

||----------------------------------------|
||----------------------------------------|x4
||---------------------------------------5|
||2-2222-222-3-2-2222-222-3-2-2222-222-3--|

||--------------------------------|
||--------------------------------|x3
||7-----8-----10-8-7-----7-----3-5|
||--000---0-0--------000---0-0----|

||----------------|  ||----------------------------------------|
||----------------|  ||----------------------------------------|
||7-----8-----10-8|  ||2-3-0-2---0-----7-7-7-7--2-3-0-2---0----|
||--000---0-0-----|  ||--------3---2-3------------------3---2-3|

||----------------------------|
||----------------------------|x4
||7-777-5-7-7--2-3-0-2---0----|
||---------------------3---2-3|

Guitar solo
||-------------------------|
||-------------------------|x4
||1-1111-1-1-1-------------|
||-------------2-2222-2-2-2|

||------------------------------|
||------------------------------|x4
||2-2222-2-2-2------------------|
||-------------3-333-3-3-3-3-3-3|
end of guitar solo

||--------------------------------------------------------------|
||--------------------------------------------------------------|x4
||----5-7-----5-7-----5-7-8-7-5-7----5-7-----5-7-----2-3-5-2----|
||000-----000-----000-------------000----000-----000---------3-2|

Bass stops at 2:41 and comes in at 2:47
                                                    
||-----------------------|
||-----------------------|
||8-7-5-7-5-3-5-3--------|
||----------------3-1-1-1|

||------------------------------------------------|
||----------------------------------------5-7-9-10|
||----7-8-7-5-----7-8-7-5-----7-8-7-5-7-8---------|
||0-0---------0-0---------0-0---------------------|

||---------------------------------------------|
||---------------------------------------------|
||----7-8-7-5-----7-8-7-5-----7-5-3-5-3--------|
||0-0---------0-0---------0-0-----------3-1-1-1|

||------------------------------------------------|
||----------------------------------------5-7-9-10|
||----7-8-7-5-----7-8-7-5-----7-8-7-5-7-8---------|
||0-0---------0-0---------0-0---------------------|

||---------------------------------------------|
||---------------------------------------------|
||----7-8-7-5-----7-8-7-5-----7-5-3-5-3--------|
||0-0---------0-0---------0-0-----------3-1-1-1|

||------------------------------------------------|
||----------------------------------------5-7-9-10|
||----7-8-7-5-----7-8-7-5-----7-8-7-5-7-8---------|
||0-0---------0-0---------0-0---------------------|

||---------------------------------------------|
||---------------------------------------------|
||----7-8-7-5-----7-8-7-5-----7-5-3-5-3--------|
||0-0---------0-0---------0-0-----------3-1-1-1|

||------------------------------------------------|
||----------------------------------------5-7-9-10|
||----7-8-7-5-----7-8-7-5-----7-8-7-5-7-8---------|
||0-0---------0-0---------0-0---------------------|

||-----------------------------------------------|
||-----------------------------------------------|
||----7-8-7-5-----7-8-7-5-----7-5-3-5-3----------|
||0-0---------0-0---------0-0-----------3-1-1-1-0|





Comments


Popular Gama Bomb tabs & chords
Evil Voices Bass Tabs
Terrorscope Bass Tabs
Final Fight Tabs
Hammer Slammer Tabs
Hammer Slammer 1 Tabs
Mussolini Mosh Intro Tabs
Ocp Tabs
Sentenced To Thrash Tabs
Space Invaders Tabs
Time Crime Tabs


Song lyrics



↑ Back to top | Tablatures and chords are parodies/interpretations of the original songs. You may use it for private study, scholarship, research or language learning purposes only
© 2014 AZChords.com Contact us | Privacy policy | DMCA | Add/correct tabs | Request tabs | Top 50 tabs