>
 >
Syu

Syu Guitar Tabs

Galneryus - Syu chords, tabs, tablatures, lyrics

Guitar lessons | Add/correct | Request | Top 50 tabs Artists:  A B C D E F G H I J K L M N O P Q R S T U V W X Y Z 0-9

Syu Guitar Tabs – Galneryus

CD, Sheet music, Poster

Do you like Syu? Share with your friends now
Tabs
Hey Guys.
When I uploaded this TAB it didn't get the right name, so I uploaded it again.
Now it's called In The Cage Solo.
Here's the Link.

Jonas



 |--PM-|     PM    |--PM-|	Pick Scratch
|------------------------------------------------------------|
|------------------------------------------------------------|
|-------6~-----------------6~--------------------------------|
|-------6~-----7~----------6~-----\\\------------------------|
|-------4~-----7~----------4~-----\\\------------------------|
|-4-5-7------3-5~----4-5-7--------\\\------------------------|


|-------------------------------------9----------------------|
|-----------------------------------9---12p9----9------------|
|-8~-8-9-9/11-9~--/8-8-9-9-11-11b13----------12---12-11-9----|
|---------------------------------------------------------11-|
|------------------------------------------------------------|
|------------------------------------------------------------|


|------------------------------------------------------------|
|------------------------------------------------------------|
|-9b11-------------------------------------------------------|
|------11p9-------------------------------------------9h11p9-|
|-----------11-9p7h9p7h9p7h9/11-9p7h9p7----7h9p7h9/11--------|
|---------------------------------------9p7------------------|


|------------------------------------------------------------|
|-------9h12p9-------9h12p9-------9h12p9-12b14rb12~----------|
|-11b13--------11b13--------11b13----------------------------|
|------------------------------------------------------------|
|------------------------------------------------------------|
|------------------------------------------------------------|


|------------------------------------------------------------|
|-/16-16-17-17-19-17~--16-16-17-17-19-19b21-19b21p17-19-17---|
|------------------------------------------------------------|
|------------------------------------------------------------|
|------------------------------------------------------------|
|------------------------------------------------------------|


	                         Play 6
                         times
|-19b21-19b21-19-17-16-|-----16|------16---------------------|
|----------------------|20b21-|-19b21-19b21-19b21p17-19-17|
|------------------------------------------------------------|
|------------------------------------------------------------|
|------------------------------------------------------------|
|------------------------------------------------------------|


|--19b21-19~---14p11--------------11h14p11-12h14/17-16-14-16~|
|-------------------12----------12---------------------------|
|---------------------11------11-----------------------------|
|-----------------------13--13-------------------------------|
|-------------------------14---------------------------------|
|------------------------------------------------------------|

                                             Triller
|-17p14--------------14h17p14-16h17/21-19-17-16h17-----------|
|------16----------16----------------------------------------|
|--------16------16------------------------------------------|
|----------16--16--------------------------------------------|
|------------17----------------------------------------------|
|------------------------------------------------------------|



|--17-19-21-19-17----17-------------------17-19-21-19-17-----|
|-----------------21----21-19-17-17-19-21--------------------|
|------------------------------------------------------------|
|------------------------------------------------------------|
|------------------------------------------------------------|
|------------------------------------------------------------|


|-21-19-17-16-19-17-16-14-16h17p16p14----------------14h16h17|
|-------------------------------------17p16p14h16h17---------|
|------------------------------------------------------------|
|------------------------------------------------------------|
|------------------------------------------------------------|
|------------------------------------------------------------|


|-17p16p14-16p14p12-14p12p11-12p11p9-------------9h11h12-----|
|-----------------------------------12p11p9h11h12------------|
|------------------------------------------------------------|
|------------------------------------------------------------|
|------------------------------------------------------------|
|------------------------------------------------------------|


|-12b14-12-11~-14p11--------------11h14p11-12h14/17-16-14-16~|
|-------------------12----------12---------------------------|
|---------------------11------11-----------------------------|
|-----------------------13--13-------------------------------|
|-------------------------14---------------------------------|
|------------------------------------------------------------|


                                             Triller
|-17p14--------------14h17p14-16h17/21-19-17-16h17-----------|
|------16----------16----------------------------------------|
|--------16------16------------------------------------------|
|----------16--16--------------------------------------------|
|------------17----------------------------------------------|
|------------------------------------------------------------|


|--17-19-21-19-17----17-------------------17-19-21-19-17-----|
|-----------------21----21-19-17-17-19-21--------------------|
|------------------------------------------------------------|
|------------------------------------------------------------|
|------------------------------------------------------------|
|------------------------------------------------------------|

	                                                  TrillerTriller
|-21-19-17-16-19-17-16-14-17-16-14-12-16-14-12----14h16-12h14|
|----------------------------------------------16------------|
|------------------------------------------------------------|
|------------------------------------------------------------|
|------------------------------------------------------------|
|------------------------------------------------------------|


TrillerTriller
|-11h12-9h11-8-8-11/14-12-11-12~----12-----12----------------|
|-------------9-------------------14-14b16-----12-----------|
|--------------------------------------------------11-9-11-9-|
|------------------------------------------------------------|
|------------------------------------------------------------|
|------------------------------------------------------------|


|------------------------------------------------------------|
|------------------------------------------------------------|
|-9h11-9-9~-8-9-11-9-8---------------------------------------|
|---------------------11-9-7---------------------------------|
|----------------------------11-9-7--6\7\9\7\6\4\2-----------|
|------------------------------------------------------------|


|------------------------------------------12b14-12-11-12----|
|--------------------------------9h12p9------------------9~~\|
|--------------------------11b13--------11-------------------|
|-------------------9h11p9-----------------------------------|
|--------7h9p7h9/11------------------------------------------|
|-/12-9~-----------------------------------------------------|





Comments


Popular Galneryus tabs & chords
Alsatia 2 Tabs
Braving Flag Tabs
Hunting For Your Dream Intro Tabs
In The Cage Tabs
In The Cage 1 Tabs
In The Cage 3 Tabs
My Last Farewell Intro Tabs
Shriek Of The Vengeance Intro Tabs
Silent Revelation Tabs
Wings Intro Tabs


Song lyrics



↑ Back to top | Tablatures and chords are parodies/interpretations of the original songs. You may use it for private study, scholarship, research or language learning purposes only
© 2014 AZChords.com Contact us | Privacy policy | DMCA | Add/correct tabs | Request tabs | Top 50 tabs