» » »

In The Cage Tabs (ver.3)

Artists:  A B C D E F G H I J K L M N O P Q R S T U V W X Y Z # 

In The Cage Tabs (ver.3)

Galneryus
Rating:
0/5 (0 votes)

Hard to play? Try these video lessons and learn fast.
                -------------------------------------------------------------------------------
                             In the cage by Galneryus
-------------------------------------------------------------------------------

Tuning:
Standard


intro: E-----------------|x2
       B-----------------|
       G-----------------|
       D------XXXX--3--X-|
       A--6---XXXX--3--X-|
       E--4---XXXX--3--X-|

       E-----------------------------------|
       B--18-16-20-18~-16-20-18~-16-15-16~-|
       G-----------------------------------|
       D-----------------------------------|
       A-----------------------------------|
       E-----------------------------------|

E------------------------20/17--|
B--18-16-20-18~-16-20-18--------|
G-------------------------------|
D-------------------------------|
A-------------------------------|
E-------------------------------|

       E------------------------------------|
       B--18-16-20-18~-16-20-18~-16~-15-16~-|
       G------------------------------------|
       D------------------------------------|
       A------------------------------------|
       E------------------------------------|

       E----------------------------------------------------------------|
       B--18-16-20-18~-16-20-18~-16~-15-16~-13~-15~-16~-15~-16~-18-16~--|
       G----------------------------------------------------------------|
       D----------------------------------------------------------------|
       A----------------------------------------------------------------|
       E----------------------------------------------------------------|

Verse E---------------------|---------------|x2---------|on second time
      B---------------------|---------------|-----------|
      G-------------------- |---------------|-----------|
      D---------------------|---------------|-----------|
      A---------------------|-66-55-3--333--|66-55-77-8-|
      E--------------//////-|-44-33-1--111--|44-33-55-6-|

E-----------------------------------------|
B-----------------------------------------|
G-----------------------------------------|
D--XXXXXXXXXXXX-------XXXXXXXXXXXXXX------|
A--XXXXXXXXXXXX--467--XXXXXXXXXXXXXX--578-|
E--XXXXXXXXXXXX-------XXXXXXXXXXXXXX------|

      E|------------------|x2
      B|------------------|
      G|------------------|
      D|------------------|
      A|-66-55-3--333333--|
      E|-44-33-1--111111--|

E--------------------------|
B--------------------------|
G--------------------------|
D--------------------------|
A66666668888888881010101010|
E44444446666666668-8-8-8-8-|

pre-chorus
E-------------------------------|
B-------------------------------|
G-------------------------------|
D-------------------------------|
A666-555-33-3--3-66666668888888-|
E4440333011-1--1-44444446666666-|

Chorus               break
E-------------------|---------------------|X3
B-------------------|---------------------|
G-------------------|---------------------|
D-------------------|---------------------|
A6-6-8-8-1010-5--5--|6666666668888888888--|
E4-4-6-6-8-8--3--3--|4444444446666666666--|


intro
verse
pre-chorus
chorus break X3


keyboard i think plays right in between the solo
i don't know the solo well enough write it down but heres the tabs for teh rythm section


E-----------------|x2
B-----------------|
G-----------------|
D------XXXX--3--X-|
A--6---XXXX--3--X-|
E--4---XXXX--3--X-|

E-----------------------------------------|
B-----------------------------------------|
G-----------------------------------------|
D--XXXXXXXXXXXX-------XXXXXXXXXXXXXX------|
A--XXXXXXXXXXXX--467--XXXXXXXXXXXXXX--578-|
E--XXXXXXXXXXXX-------XXXXXXXXXXXXXX------|

      E|------------------|----------------|
      B|------------------|----------------|
      G|------------------|----------------|
      D|------------------|----------------|
      A|-66-55-3--333333--|-66-55-66-8-888-|
      E|-44-33-1--111111--|-44-33-44-6-666-|

E-----------------------------------------|
B-----------------------------------------|
G-----------------------------------------|
D--XXXXXXXXXXXX-------XXXXXXXXXXXXXX------|
A--XXXXXXXXXXXX--467--XXXXXXXXXXXXXX--578-|
E--XXXXXXXXXXXX-------XXXXXXXXXXXXXX------|


E|------------------|----------------|
B|------------------|----------------|
G|------------------|----------------|
D|------------------|----------------|
A|-66-55-3--333333--|-66-55-66-8-888-|
E|-44-33-1--111111--|-44-33-44-6-666-|


E-----------------------|
B-----------------------|
G-----------------------|
D-----------------------|
A-8-810-1012-12-13------|
E-6-68--8-10-10-11------|

E-------------------------------|
B-------------------------------|
G-------------------------------|
D-------------------------------|
A666-555-33-3--3-66666668888888-|
E4440333011-1--1-44444446666666-|

E-----------------------|
B-----------------------|
G-----------------------|
D-----------------------|
A-8-810-1012-12-13------|
E-6-68--8-10-10-11------|

E----------------|
B----------------|
G----------------|
D----------------|
A666-555-33-3--3-|
E4440333011-1--1-|

(don't play piano and vocals)

chorus and break x3

outro

E--------------------------------------|
B--------------------------------------|
G--18~-16-18-20-18~-20-22-23-23-22-----|
D--------------------------------23----|
A--------------------------------------|
E--------------------------------------|

E-------------------------------|
B-------------------------------|
G--16~-18-16-18-20-18-20-22-23--|
D-------------------------------|
A-------------------------------|
E-------------------------------|

E-----------------------------------|
B--18-16-20-18~-16-20-18~-16-15-16~-|
G-----------------------------------|
D-----------------------------------|
A-----------------------------------|
E-----------------------------------|

E------------------------20/17--|
B--18-16-20-18~-16-20-18--------|
G-------------------------------|
D-------------------------------|
A-------------------------------|
E-------------------------------|


E----------------------------------------------------------------|
B--18-16-20-18~-16-20-18~-16~-15-16~-13~-15~-16~-15~-16~-18-16~--|
G----------------------------------------------------------------|
D----------------------------------------------------------------|
A----------------------------------------------------------------|
E----------------------------------------------------------------|

E-----------------------------------|
B--18-16-20-18~-16-20-18~-23bend-22~|
G-----------------------------------|
D-----------------------------------|
A-----------------------------------|
E-----------------------------------|
slower medoly
E----------------------------------------------------------------------|
B--18-16-20-18~-16-20-18~-16-15-16~-13~-15-16-1818-16~-15~-16~-13~-----|
G----------------------------------------------------------------------|
D----------------------------------------------------------------------|
A----------------------------------------------------------------------|
E----------------------------------------------------------------------|

thats basically it. Once you find the rythm its really easy. and if i can get some help 
the solo for this out. it would be evern more appreciated

Song by the greatest band eva (Galnryus.)
            
Hard to play? Try these video lessons and learn fast. | Correct




comments powered by Disqus
↑ Back to top | Tablatures and chords are parodies/interpretations of the original songs. You may use it for private study, scholarship, research or language learning purposes only