» » »

Braving Flag Tabs (ver.1)

Artists:  A B C D E F G H I J K L M N O P Q R S T U V W X Y Z # 

Braving Flag Tabs (ver.1)

Galneryus
Rating:
1/5 (1 vote)

Tabs too difficult? Try these video lessons and learn fast.
                -------------------------------------------------------------------------------
-------------------------------------------------------------------------------
Tuning:
standard


Intro

e-----------------------------------|x2
b-----------------------------------|
g-----------------------------------|
D-88-6-8-2-----------4-6---6-6-6----|
A-66-4-6-4------4-6-7------4-4-4----|
E----------2-4-5--------------------|

pre-verse
e-----------------------------------|x2
b-----------------------------------|
g-----------------------------------|
D-86-86-86-86-86--444---------------|
A-64-64-64-64-64--222---------------|
E-----------------------------------|

Verse
e--------------------------------------|x2
b--------------------------------------|
g--------------------------------------|
D-88-----8-66-----6-444---444-666------|
A-66-----6-44-----4-222---222-444------|
E--------------------------------------|


pre-chorus
PM------  ---------  ---------    ----------  -----|
e--------------------------------------------------|
b--------------------------------------------------|
g--------------------------------------------------|
D--------------------------------------------------|
A--6----66----8----88---10----1010---8------88-----|
E--4(x8)44----6(x8)66---8-(x8)8-8----6-(x8)-66-----|

chorus

e-------------------------------------------------------------|x2
b-------------------------------------------------------------|
g-------------------------------------------------------------|
D--8-8-8-8-8-8-6-6-6-6-6-6-4-4-4-4-4-4-4-4-4-6-6-6------------|
A--6-6-6-5-5-5-4-4-4-3-3-3-2-2-2-1-1-1-2-2-2-4-4-4------------|
E-------------------------------------------------------------|


pre-versex2
verse
pre-chorus
chorusx2

SOLO (so many notes) will right later and post seperately)


chorus x4
intro x2

(outro) which i will post with solo.
            
Tabs too difficult? Try these video lessons and learn fast.




comments powered by Disqus
↑ Back to top | Tablatures and chords are parodies/interpretations of the original songs. You may use it for private study, scholarship, research or language learning purposes only