» » »

Gallows, Vapid Adolescent Blues Tabs (ver.1)

Artists:  A B C D E F G H I J K L M N O P Q R S T U V W X Y Z # 

Vapid Adolescent Blues Tabs (ver.1)

Gallows Tabs
Rating:
0/5 (0 votes)
Vapid Adolescent Blues lessons Tabs too difficult? Try these video lessons and learn fast
                -------------------------------------------------------------------------------
-------------------------------------------------------------------------------

Tuning: C#,Ab,C#,F#,Bb,Eb or Db,G#,Db,Gb,A#,D#.

(I can’t be bothered changing the template from standard, I’m sure you’re not stupid.)


VERSE:
e|---------------------------------------------------------------------------|
B|---------------------------------------------------------------------------|
G|---------------------------------------------------------------------------|
D|-10-7-5---10-10-10-10-10-7-5---10-10-10-10-10-7-5---10-10-10-10-7-5-7-7-7--|
A|-10-7-5---10-10-10-10-10-7-5---10-10-10-10-10-7-5---10-10-10-10-7-5-7-7-7--|
E|-10-7-5---10-10-10-10-10-7-5---10-10-10-10-10-7-5---10-10-10-10-7-5-7-7-7--|

X2

e|-------------------|----------------|
B|-------------------|----------------|
G|-5-555-555-555-55--|----------------|
D|-4-444-444-444-44--|----------------|
A|-3-333-333-333-33--|---8------------|
E|-------------------|-8---8--7--3-0--|

VERSE X2

CHORUS:

e|-----------------------------------|
B|-----------------------------------|
G|-7--10-------------------77-5-7----|
D|-7--10--8---5--3--0------77-5-7----|
A|-5--8---8---5--3--0--X4--55-3-5----|
E|--------8---5--3--0----------------|

VERSE:
Same as before.

CHORUS:
Same as before.

BRIDGE:

e|---------------------------------------------------------------------------|
B|---------------------------------------------------------------------------|
G|---------------------------------------------------------------------------|
D|---------------X2-------------------------------7--------------------------|
A|-8-7-5-3-5-7-5----8-7-5-3-5-3-0-3-8-7-5-3-5-7-5----UNTIL END OF 1st BRIDGE-|
E|---------------------------------------------------------------------------|

e|---------------------------------------------------------------------------|
B|---------------------------------------------------------------------------|
G|-10-9-7-5-7-9-7----10-9-7-5-7-5-2-5-10-9-7-5-55-55-------------------------|
D|-10-9-7-5-7-9-7----10-9-7-5-7-5-2-5-10-9-7-5-55-55-------------------------|
A|-8--7-5-3-5-7-5----8--7-5-3-5-3-0-3-8--7-5-3-33-33----UNTIL END OF BRIDGE--|
E|---------------------------------------------------------------------------|

OUTRO:

Play chorus twice, second time single strums slowly.
            

comments powered by Disqus
↑ Back to top | Gallows Tabs for Vapid Adolescent Blues. Lyrics for acoustic guitar and electric guitar. Tablatures and chords are parodies/interpretations of the original songs. You may use it for private study, scholarship, research or language learning purposes only