» » »

Staring At The Rude Bois Bass tabs (ver.3)

Artists:  A B C D E F G H I J K L M N O P Q R S T U V W X Y Z # 

Staring At The Rude Bois Bass tabs (ver.3)

Gallows
Rating:
0/5 (0 votes)

Tabs too difficult? Try these video lessons and learn fast.
                Band:  Gallows

      Intro
G|--------------------|
D|--------------------|
A|------5-5-5-3-5-3-5-|
E|--------------------|

      Verse
G|----------|--------------|
D|----------|--------------|
A|-5-7-8-78-|-5-57-78-878--|
E|----------|--------------|

      Chorus
G|---------------------|
D|---------------------|
A|-3/5-------3/5-------|
E|---------------------|

G|--------------------------------------------------|
D|--------------------------------------------------|         x2
A|-2h3-2h3-2h3-2h3-2h3-2h3-2h3-2h3-2h3-2h3----------|
E|--------------------------------------------------|

G|---------------------|
D|---------------------|
A|-3/5-------3/5-------|
E|---------------------|

G|---------------------------|
D|---------------------------|
A|-3----------8-7-8----8-7-8-|
E|----------3-------3--------|

      Bridge (Just before Bizzle come in)
G|--------------------------|
D|--------------------------|
A|5555-7777-12121212-8888---|
E|--------------------------|

G|--------------------------|
D|--------------------------|
A|-5555-7777-8888-10101010--|
E|--------------------------|


ORDER

Intro
Verse   x12
Chorus
Verse   x8
Bridge  x2
Rest
Verse   x4
Chorus
            
Tabs too difficult? Try these video lessons and learn fast.




comments powered by Disqus
↑ Back to top | Tablatures and chords are parodies/interpretations of the original songs. You may use it for private study, scholarship, research or language learning purposes only