>
 >
Sick Of Feeling Sick

Sick Of Feeling Sick Guitar Tabs

Gallows - Sick Of Feeling Sick chords, tabs, tablatures, lyrics

Guitar lessons | Add/correct | Request | Top 50 tabs Artists:  A B C D E F G H I J K L M N O P Q R S T U V W X Y Z 0-9

Sick Of Feeling Sick Guitar Tabs – Gallows

CD, Sheet music, Poster

Do you like Sick Of Feeling Sick? Share with your friends now
Tabs
Lead Guitar + Rhythm Guitar
Tuning Drop D
Lead Guitar
e|------------------------------------------------------------------------|
B|------------------------------------------------------------------------|
G|------------------------------------------------------------------------|
D|----0--2--0--2-------0--2--0--2--5--2-------0--2--0--2-22-33355566------|
A|----0--2--0--2-------0--2--0--2--5--2-------0--2--0--2-22-33355566------|
D|----0--2--0--2-------0--2--0--2--5--2-------0--2--0--2-22-33355566------|

|------------------------------------------------------------------------|
|------------------------------------------------------------------------|
|------------------------------------------------------------------------|
|----0--2--0--2-------0--2--0--2--5--2-------0--2--0--2-22-33355566------|
|----0--2--0--2-------0--2--0--2--5--2-------0--2--0--2-22-33355566------|
|----0--2--0--2-------0--2--0--2--5--2-------0--2--0--2-22-33355566------|

|---------------------------------------------------------------------|
|---------------------------------------------------------------------|
|---------------------------------------------------------------------|
|----0--2--0--2-------------0--2--0--2--5--2-------0--2--0--2-22-33355566|
|----0--2--0--2-------------0--2--0--2--5--2-------0--2--0--2-22-33355566|
|----0--2--0--2-------------0--2--0--2--5--2-------0--2--0--2-22-33355566|

|------------------------------------------------------------------------|
|------------------------------------------------------------------------|
|------------------------------------------------------------------------|
|----0--2--0--2-------0--2--0--2--5--2-------0--2--0--2-22-33355566------|
|----0--2--0--2-------0--2--0--2--5--2-------0--2--0--2-22-33355566------|
|----0--2--0--2-------0--2--0--2--5--2-------0--2--0--2-22-33355566------|

|------6666666666666666--------------------------|
|------5555555555555555--------------------------|
|------8888888888888888--------------------------|
|------7777777777777777--99999999-8888-7777------|x2
|------------------------77777777-6666-5555------|
|------------------------------------------------|

|------------------------------------------------------------------------|
|------------------------------------------------------------------------|
|------------------------------------------------------------------------|
|----0--2--0--2-------0--2--0--2--5--2-------0--2--0--2-22-33355566------|
|----0--2--0--2-------0--2--0--2--5--2-------0--2--0--2-22-33355566------|
|----0--2--0--2-------0--2--0--2--5--2-------0--2--0--2-22-33355566------|

|------------------------------------------------------------------------|
|------------------------------------------------------------------------|
|------------------------------------------------------------------------|
|----0--2--0--2-------0--2--0--2--5--2-------0--2--0--2-22-33355566------|
|----0--2--0--2-------0--2--0--2--5--2-------0--2--0--2-22-33355566------|
|----0--2--0--2-------0--2--0--2--5--2-------0--2--0--2-22-33355566------|

|---------------------------------------------------------------------|
|---------------------------------------------------------------------|
|---------------------------------------------------------------------|
|----0--2--0--2-------------0--2--0--2--5--2-------0--2--0--2-22-33355566|
|----0--2--0--2-------------0--2--0--2--5--2-------0--2--0--2-22-33355566|
|----0--2--0--2-------------0--2--0--2--5--2-------0--2--0--2-22-33355566|

|------------------------------------------------------------------------|
|------------------------------------------------------------------------|
|------------------------------------------------------------------------|
|----0--2--0--2-------0--2--0--2--5--2-------0--2--0--2-22-33355566------|
|----0--2--0--2-------0--2--0--2--5--2-------0--2--0--2-22-33355566------|
|----0--2--0--2-------0--2--0--2--5--2-------0--2--0--2-22-33355566------|

|------6666666666666666--------------------------|
|------5555555555555555--------------------------|
|------8888888888888888--------------------------|
|------7777777777777777--99999999-8888-7777------|x2
|------------------------77777777-6666-5555------|
|------------------------------------------------|

|----------------------------------------------|
|----------------------------------------------|
|------------8p0-------------8p0---------------|
|----6p0-6p0-------6p0-6p0-------6p0--8p0------|x4
|----------------------------------------------|
|----------------------------------------------|

|------------------------------------------------------|
|------------------------------------------------------|
|--------------55-7-55/7------------------5------------|
|-----5-5757---33-5-33/5----2-2323-2-232--35-----------|x4
|-----5-5757---33-5-33/5----2-2323-2-232--35-----------|
|-----5-5757----------------2-2323-2-232---5-----------|

|-----------------------------------------------------------|
|---------------10--10--10--10-----------13--13--13--13-----|
|---------------12^-12^-12^-12^----------15^-15^-15^-15^----|
|----5-5757-----------------------2-2323--------------------|
|----5-5757-----------------------2-2323--------------------|
|----5-5757-----------------------2-2323--------------------|

|------------------------------------------------------------------------|
|-------------10--10--10--10--------------13--13--13--13-----15-15-15-15-|
|-------------12^-12^-12^-12^-------------15^-15^-15^-15^----17^17^17^17^|
|----5-5757-----------------------2-2323---------------------------------|
|----5-5757-----------------------2-2323---------------------------------|
|----5-5757-----------------------2-2323---------------------------------|

|------------------------------------------------------------------------|
|------------------------------------------------------------------------|
|------------------------------------------------------------------------|
|----0--2--0--2-------0--2--0--2--5--2-------0--2--0--2-22-33355566------|
|----0--2--0--2-------0--2--0--2--5--2-------0--2--0--2-22-33355566------|
|----0--2--0--2-------0--2--0--2--5--2-------0--2--0--2-22-33355566------|

|------------------------------------------------------------------------|
|------------------------------------------------------------------------|
|------------------------------------------------------------------------|
|----0--2--0--2-------0--2--0--2--5--2-------0--2--0--2-22-33355566------|
|----0--2--0--2-------0--2--0--2--5--2-------0--2--0--2-22-33355566------|
|----0--2--0--2-------0--2--0--2--5--2-------0--2--0--2-22-33355566------|

|-----------------------------------------------------------------------|
|-----------------------------------------------------------------------|
|-----------------------------------------------------------------------|
|----0--2--0--2-------------0--2--0--2--5--2-------0--2--0--2-22-33355566--|
|----0--2--0--2-------------0--2--0--2--5--2-------0--2--0--2-22-33355566--|
|----0--2--0--2-------------0--2--0--2--5--2-------0--2--0--2-22-33355566--|

|------------------------------------------------------------------------|
|------------------------------------------------------------------------|
|------------------------------------------------------------------------|
|----0--2--0--2-------0--2--0--2--5--2-------0--2--0--2-22-33355566------|
|----0--2--0--2-------0--2--0--2--5--2-------0--2--0--2-22-33355566------|
|----0--2--0--2-------0--2--0--2--5--2-------0--2--0--2-22-33355566------|

|------6--------------6----------------------|
|------5-------------------5-----------------|
|------8----------8--------------------------|
|------7-------------------------------------|x4
|--------------------------------------------|
|--------------------------------------------|

|-------------------------------------------|
|-------------------------------------------|
|----------------------------------8p0------|
|----6p0-6p0-8p0--6p0-6p0-8p0--6p0----------|x8
|-------------------------------------------|
|-------------------------------------------|

|-----------------------------------------------------|
|-----------------------------------------------------|
|--------------55-7-55/7------------------5-----------|
|--------------33-5-33/5----2-2323-2-232--35----------|
|--------------33-5-33/5----2-2323-2-232--35----------|
|---------------------------2-2323-2-232---5----------|

|-----------------------------------------------------|
|-----------------------------------------------------|
|--------------55-7-55/7------------------5-----------|
|-----5-5757---33-5-33/5----2-2323-2-232--35----------|x3
|-----5-5757---33-5-33/5----2-2323-2-232--35----------|
|-----5-5757----------------2-2323-2-232---5----------|

|---------------------------------|
|---------------------------------|
|----------------5----------------|
|--2-2323-2-232--35----5-5757-----|
|--2-2323-2-232--35----5-5757-----|
|--2-2323-2-232---5----5-5757-----|

=Harmonics
/=Slide

Rythm Guitar

e|------------------------------------------------------------------------|
B|------------------------------------------------------------------------|
G|------------------------------------------------------------------------|
D|----0--2--0--2-------0--2--0--2--5--2-------0--2--0--2-22-33355566------|
A|----0--2--0--2-------0--2--0--2--5--2-------0--2--0--2-22-33355566------|
D|----0--2--0--2-------0--2--0--2--5--2-------0--2--0--2-22-33355566------|

|------------------------------------------------------------------------|
|------------------------------------------------------------------------|
|------------------------------------------------------------------------|
|----0--2--0--2-------0--2--0--2--5--2-------0--2--0--2-22-33355566------|
|----0--2--0--2-------0--2--0--2--5--2-------0--2--0--2-22-33355566------|
|----0--2--0--2-------0--2--0--2--5--2-------0--2--0--2-22-33355566------|

|---------------------------------------------------------------------|
|---------------------------------------------------------------------|
|---------------------------------------------------------------------|
|----0--2--0--2-------------0--2--0--2--5--2-------0--2--0--2-22-33355566|
|----0--2--0--2-------------0--2--0--2--5--2-------0--2--0--2-22-33355566|
|----0--2--0--2-------------0--2--0--2--5--2-------0--2--0--2-22-33355566|

|------------------------------------------------------------------------|
|------------------------------------------------------------------------|
|------------------------------------------------------------------------|
|----0--2--0--2-------0--2--0--2--5--2-------0--2--0--2-22-33355566------|
|----0--2--0--2-------0--2--0--2--5--2-------0--2--0--2-22-33355566------|
|----0--2--0--2-------0--2--0--2--5--2-------0--2--0--2-22-33355566------|

|------6666666666666666--------------------------|
|------5555555555555555--------------------------|
|------8888888888888888--------------------------|
|------7777777777777777--99999999-8888-7777------|x2
|------------------------77777777-6666-5555------|
|------------------------------------------------|

|------------------------------------------------------------------------|
|------------------------------------------------------------------------|
|------------------------------------------------------------------------|
|----0--2--0--2-------0--2--0--2--5--2-------0--2--0--2-22-33355566------|
|----0--2--0--2-------0--2--0--2--5--2-------0--2--0--2-22-33355566------|
|----0--2--0--2-------0--2--0--2--5--2-------0--2--0--2-22-33355566------|

|------------------------------------------------------------------------|
|------------------------------------------------------------------------|
|------------------------------------------------------------------------|
|----0--2--0--2-------0--2--0--2--5--2-------0--2--0--2-22-33355566------|
|----0--2--0--2-------0--2--0--2--5--2-------0--2--0--2-22-33355566------|
|----0--2--0--2-------0--2--0--2--5--2-------0--2--0--2-22-33355566------|

|---------------------------------------------------------------------|
|---------------------------------------------------------------------|
|---------------------------------------------------------------------|
|----0--2--0--2-------------0--2--0--2--5--2-------0--2--0--2-22-33355566|
|----0--2--0--2-------------0--2--0--2--5--2-------0--2--0--2-22-33355566|
|----0--2--0--2-------------0--2--0--2--5--2-------0--2--0--2-22-33355566|

|------------------------------------------------------------------------|
|------------------------------------------------------------------------|
|------------------------------------------------------------------------|
|----0--2--0--2-------0--2--0--2--5--2-------0--2--0--2-22-33355566------|
|----0--2--0--2-------0--2--0--2--5--2-------0--2--0--2-22-33355566------|
|----0--2--0--2-------0--2--0--2--5--2-------0--2--0--2-22-33355566------|

|------6666666666666666--------------------------|
|------5555555555555555--------------------------|
|------8888888888888888--------------------------|
|------7777777777777777--99999999-8888-7777------|x6
|------------------------77777777-6666-5555------|
|------------------------------------------------|


|------------------------------------------------------|
|------------------------------------------------------|
|--------------55-7-55/7------------------5------------|
|-----5-5757---33-5-33/5----2-2323-2-232--35-----------|x4
|-----5-5757---33-5-33/5----2-2323-2-232--35-----------|
|-----5-5757----------------2-2323-2-232---5-----------|

|-----------------------------------------------------------|
|---------------6--6--6--6---------------9---9---9---9------|
|---------------8^-8^-8^-8^--------------11^-11^-11^-11^----|
|----5-5757-----------------------2-2323--------------------|
|----5-5757-----------------------2-2323--------------------|
|----5-5757-----------------------2-2323--------------------|

|-----------------------------------------------------------------------|
|-------------6--6--6--6-----------------9---9---9--9-------11-11-11-11-|
|-------------8^-8^-8^-8^----------------11^-11^-11^-11^----13^13^13^13^|
|----5-5757-----------------------2-2323--------------------------------|
|----5-5757-----------------------2-2323--------------------------------|
|----5-5757-----------------------2-2323--------------------------------|

|------------------------------------------------------------------------|
|------------------------------------------------------------------------|
|------------------------------------------------------------------------|
|----0--2--0--2-------0--2--0--2--5--2-------0--2--0--2-22-33355566------|
|----0--2--0--2-------0--2--0--2--5--2-------0--2--0--2-22-33355566------|
|----0--2--0--2-------0--2--0--2--5--2-------0--2--0--2-22-33355566------|

|------------------------------------------------------------------------|
|------------------------------------------------------------------------|
|------------------------------------------------------------------------|
|----0--2--0--2-------0--2--0--2--5--2-------0--2--0--2-22-33355566------|
|----0--2--0--2-------0--2--0--2--5--2-------0--2--0--2-22-33355566------|
|----0--2--0--2-------0--2--0--2--5--2-------0--2--0--2-22-33355566------|

|-----------------------------------------------------------------------|
|-----------------------------------------------------------------------|
|-----------------------------------------------------------------------|
|----0--2--0--2-------------0--2--0--2--5--2-------0--2--0--2-22-33355566--|
|----0--2--0--2-------------0--2--0--2--5--2-------0--2--0--2-22-33355566--|
|----0--2--0--2-------------0--2--0--2--5--2-------0--2--0--2-22-33355566--|

|------------------------------------------------------------------------|
|------------------------------------------------------------------------|
|------------------------------------------------------------------------|
|----0--2--0--2-------0--2--0--2--5--2-------0--2--0--2-22-33355566------|
|----0--2--0--2-------0--2--0--2--5--2-------0--2--0--2-22-33355566------|
|----0--2--0--2-------0--2--0--2--5--2-------0--2--0--2-22-33355566------|

|------6666666666666666--------------------------|
|------5555555555555555--------------------------|
|------8888888888888888--------------------------|
|------7777777777777777--99999999-8888-7777------|x8
|------------------------77777777-6666-5555------|
|------------------------------------------------|

|-----------------------------------------------------|
|-----------------------------------------------------|
|-----------------------------------------5-----------|
|-----5-5757----------------2-2323-2-232--35----------|
|-----5-5757----------------2-2323-2-232--35----------|
|-----5-5757----------------2-2323-2-232---5----------|

|-----------------------------------------------------|
|-----------------------------------------------------|
|--------------55-7-55/7------------------5-----------|
|-----5-5757---33-5-33/5----2-2323-2-232--35----------|x3
|-----5-5757---33-5-33/5----2-2323-2-232--35----------|
|-----5-5757----------------2-2323-2-232---5----------|

|---------------------------------|
|---------------------------------|
|----------------5----------------|
|--2-2323-2-232--35----5-5757-----|
|--2-2323-2-232--35----5-5757-----|
|--2-2323-2-232---5----5-5757-----|

=Harmonics
/=Slide





Comments


Popular Gallows tabs & chords
Queensberry Rules 2 Bass Tabs
Will Someone Shoot That Fucking Snake 2 Bass Tabs
The Vulture Act I Chords
Crucifucks Tabs
In The Belly Of A Shark 3 Tabs
Just Because You Sleep Next To Me Doesnt Mean Your Safe Tabs
Misery Tabs
Staring At The Rudeboys Tabs
The Vulture Act 2 1 Tabs
The Vulture Act 1 Ukulele


Song lyrics



↑ Back to top | Tablatures and chords are parodies/interpretations of the original songs. You may use it for private study, scholarship, research or language learning purposes only
© 2014 AZChords.com Contact us | Privacy policy | DMCA | Add/correct tabs | Request tabs | Top 50 tabs