» » »

Rolling With The Punches Tabs (ver.2)

Artists:  A B C D E F G H I J K L M N O P Q R S T U V W X Y Z # 

Rolling With The Punches Tabs (ver.2)

Gallows
Rating:
0/5 (0 votes)

Tabs too difficult? Try these video lessons and learn fast.
                Gallows

Drop D Tuning
x-mute


VERSE RIFF

Lead
e---------------------------------------|
B-----------------------555555555555555-|
G-----------------------888888888888888-|
D-777-x-777-x-777-x-333-777777777777777-|
A-777-x-777-x-777-x-333-----------------|
E-777-x-777-x-777-x-333-----------------|

Rhythm
e--------------------------------------|
B--------------------------------------|
G------------------------------5555555-|
D-777---777---777---333-666666-5555555-|
A-777---777---777---333-666666-3333333-|
E-777---777---777---333-666666---------|


SOLO

Lead
e----------------------------10-10----------------|
B-12-12-10-12-12-10-12-12-12-------11-11-11-11----|
G-------------------------------------------------|
D-------------------------------------------------|
A-------------------------------------------------|
E-------------------------------------------------|

e----------------------------------------|
B11-10-----10-12-10----10----------------|
G-------12----------12----12----------12-|
D----------------------------14-12-14----|
A----------------------------------------|
E----------------------------------------|



Rhythm
e-----------------------------------|
B-----------------------------------|
G-----------------------------------|
D-2-222-222-22-000-1-111-111-11-000-|
A-2-222-222-22-000-1-111-111-11-000-|
E-2-222-222-22-000-1-111-111-11-000-|


CHORUS

Lead guitar
e-----------------------------|
B-----------------------------|
G-----------------------------|
D--------------3p0-h5p0-h6p0--|
A-0-0-3p0-h5p0----------------|
E-----------------------------|

Rhythm guitar
e--------------------------------|
B--------------------------------|
G--------------------------------|
D-5-6-3-3-3--3-5-6-0-0-0-0-0-0-0-|
A-5-6-3-3-3--3-5-6-0-0-0-0-0-0-0-|
E-5-6-3-3-3--3-5-6-0-0-0-0-0-0-0-|


pOST CHORUS

Both
e-------------------------------------|
B-------------------------------------|
G-------------------------------------|
D-00-3-0-3-0-00-3-0-3-0-00-00-00-55---|
A-00-3-0-3-0-00-3-0-3-0-00-00-00-55---|
E-00-3-0-3-0-00-3-0-3-0-00-00-00-55---|


e------------|
B------------|
G----------5-|
D-7------6-5-|
A-7------6-3-|
E-7------6---|


BRIDGE

e----------------------------------------------|
B----------------------------------------------|
G----------------------------------------------|
D-777777777-66666666666-555555555-5555555555-5-|
A-777777777-66666666666-555555555-3333333333-5-|
E-777777777-66666666666-555555555-3333333333-5-| (palm muted)
            
Tabs too difficult? Try these video lessons and learn fast.




comments powered by Disqus
↑ Back to top | Tablatures and chords are parodies/interpretations of the original songs. You may use it for private study, scholarship, research or language learning purposes only