>
 >
Queensberry Rules 2

Queensberry Rules 2 Bass Tabs

Gallows - Queensberry Rules 2 chords, tabs, tablatures, lyrics

Guitar lessons | Add/correct | Request | Top 50 tabs Artists:  A B C D E F G H I J K L M N O P Q R S T U V W X Y Z 0-9

Queensberry Rules 2 Bass Tabs – Gallows

CD, Sheet music, Poster

Do you like Queensberry Rules 2? Share with your friends now
Bass TabsBass Tabs v2Tabs
Gallows - Queensberry rules


Drop D tuning (DADG)

~ = let ring

Intro - bass in at 0:09

G|----------------------------|
D|----------------------------|
A|----------------------------|
D|--7--7-5-7-----5---8---7----|


G|----------------------------|----------------------------|
D|----------------------------|----------------------------|
A|--7--7-5-7-----5-7-8-7-5----|--7--7-5-7-----5-7-8-7-5----|
D|----------------------------|----------------------------|

G|--------------------------|----------------------------| x2
D|--------------------------|----------------------------| 
A|--5--5-3-5-----3-5-6-5-3--|----------------------------|
D|--------------------------|--7--7-5-7-----5---8---7----|


Pre-verse

G|--------------------|--------------------|
D|--------------------|--------------------|
A|--------------------|--------------------|
D|--0~~~----0---------|--0-------0---------|


Verse

G|-----------------------------------|-----------------------------------|
D|-----------------------------------|-----------------------------------|
A|------3-----2---6-----5---3-2-3-2--|------3-----2---6-----5---3-5-2----|
D|--0-0---0-0---0---0-0---0----------|--0-0---0-0---0---0-0---0----------|

G|-----------------------------------|---------------------------------| x3
D|-----------------------------------|---------------------------------|
A|------3-----2---6-----5---3-2-3-2--|------3-----2---6-----6--5--3----|
D|--0-0---0-0---0---0-0---0----------|--0-0---0-0---0---0-0------------|


Chorus

G|-------------------------|--------------------------|
D|-------------------------|--------------------------|
A|-------------------------|--------------------------|
D|--3~~~-------2-3-5--3----|--0~~~-------5-7-8-7-5----|

G|-------------------------|------------------------|
D|-------------------------|------------------------|
A|-------------------------|------------------------|
D|--3~~~-------2-3-5--3----|--0~~~-------8--7--5----|

G|-------------------------|--------------------------|
D|-------------------------|--------------------------|
A|-------------------------|--------------------------|
D|--3~~~-------2-3-5--3----|--0~~~-------5-7-8-7-5----|

G|-------------------------|--------------------|
D|-------------------------|--------------------|
A|-------------------------|--------------------|
D|--3~~~-------2-3-5--3----|--0~~~----0---------|


Verse

Chorus


Pre-bridge

G|---------------|
D|---------------|
A|---------------|
D|--00000-00000--|


Bridge

G|-------------------------------|-------------------------------|
D|-------------------------------|-------------------------------|
A|-------------------------------|-------------------------------|
D|--7-7--7-7-7--7-7-7--7-7-7--7--|--6-6--6-6-6--6-6-6--6-6-6--6--|

G|-------------------------------|-------------------------------| x2
D|-------------------------------|-------------------------------| 
A|-------------------------------|-------------------------------|
D|--3-3--3-3-3--3-3-3--3-3-3--3--|--2-2--2-2-2--2-6-6--6-6-6--6--|


G|----------------------------------|----------------------------------|
D|----------------------------------|----------------------------------|
A|----------------------------------|----------------------------------|
D|--7-7-7-7-7-7-7-7-7-7-7-7-9--7----|--6-6-6-6-6-6-6-6-6-6-6-6-7--6----|

G|----------------------------------|-----------------------------------| x2
D|----------------------------------|-----------------------------------|
A|----------------------------------|-----------------------------------|
D|--3-3-3-3-3-3-3-3-3-3-3-3-5--3----|--2-2-2-2-2-2-2-2-6-6-6-6-6-6-6-6--|


G|-----------------------------------|-----------------------------------|
D|-----------------------------------|-----------------------------------|
A|-----------------------------------|-----------------------------------|
D|--7-7-7-7-7-7-7-7-7-7-7-7-7-7-7-7--|--6-6-6-6-6-6-6-6-6-6-6-6-6-6-6-6--|

G|-----------------------------------|-----------------------------------| x2
D|-----------------------------------|-----------------------------------|
A|-----------------------------------|-----------------------------------|
D|--3-3-3-3-3-3-3-3-3-3-3-3-3-3-3-3--|--2-2-2-2-2-2-2-2-6-6-6-6-6-6-6-6--|


Outro

G|-----------------------|-------------------------------| x4
D|-----------------------|-------------------------------|
A|-----------------------|-------------------------------|
D|--7~~~----9--7--6~~~---|--7--3~~~----5--3--2~~--6~~----|


End Note

G|----------|
D|----------|
A|----------|
D|--7~~~----|


here you are! have fun





Comments


Popular Gallows tabs & chords
Misery 1 Bass Tabs
The Riverbed 3 Bass Tabs
Crucifucks Tabs
Graves Tabs
Misery Intro Tabs
Mondo Chaos Tabs
Outsider Art Tabs
Rolling With The Punches Intro Tabs
Six Years Tabs
The Vulture Act 1 Ukulele


Song lyrics



↑ Back to top | Tablatures and chords are parodies/interpretations of the original songs. You may use it for private study, scholarship, research or language learning purposes only
© 2014 AZChords.com Contact us | Privacy policy | DMCA | Add/correct tabs | Request tabs | Top 50 tabs