» » »

Gallows, Queensberry Rules Tabs (ver.1)

Artists:  A B C D E F G H I J K L M N O P Q R S T U V W X Y Z # 

Queensberry Rules Tabs (ver.1)

Gallows Tabs
Rating:
5/5 (3 votes)
Queensberry Rules lessons Tabs too difficult? Try these video lessons and learn fast
                

Tuning: Drop D


Gallows are superb. Comments, constructive criticism and corrections welcome!!!

  Intro
e|---------------------------------------------------|
B|---------------------------------------------------|
G|--9-9-7-9~----7-9-10-9-7--9--9-7-9~----7-9-10-9-7--|
D|--9-9-7-9~----7-9-10-9-7--9--9-7-9~----7-9-10-9-7--|
A|--7-7-5-7~----5-7-8--7-5--7--7-5-7~----5-7-8--7-5--|
D|---------------------------------------------------|

e|--------------------------------------------||----------|
B|--------------------------------------------||----------|
G|--7-7-5-7~----5-7-8-7-5---------------------||----------|
D|--7-7-5-7~----5-7-8-7-5--7-7-5-7~----5-8-7--||--0~------|
A|--5-5-3-5~----3-5-6-5-3--7-7-5-7~----5-8-7--||--0~------|
D|-------------------------7-7-5-7~----5-8-7--||--0~------|


  Verse
e|-----------------------------------------------------------|
B|-----------------------------------------------------------|
G|-----------------------------------------------------------|
D|-----5----4---8----7---5\4/5\4----5----4---8----7---5/7\4--|
A|-----3----2---6----5---3\2/3\2----3----2---6----5---3/5\2--|
D|--00---00---0---00---0---------00---00---0---00---0--------|
    ..   ..   .   ..   .         ..   ..   .   ..   .

e|-------------------------------------|
B|-------------------------------------|
G|-------------------------------------|
D|-----5----4---8----7---8-7-5-3~------|
A|-----3----2---6----5---6-5-3-3~------|
D|--00---00---0---00---0-------3~------|
    ..   ..   .   ..   .   


  Chorus
e|-----------------------------------------------------------|
B|-----------------------------------------------------------|
G|-----------------------------------------------------------|
D|--3~------------0~--------------3~------------0~----5-3-2--|
A|--3~------------0~----0-1-3-1-0-3~------------0~----3-1-0--|
D|--3~----2-3-5-3-0~--------------3~----2-3-5-3-0~-----------|

e|------------------------------------------------------|
B|------------------------------------------------------|
G|------------------------------------------------------|
D|--3~------------0~--------------3~------------0~------|
A|--3~------------0~----0-1-3-1-0-3~------------0~------|
D|--3~----2-3-5-3-0~--------------3~----2-3-5-3-0~------|


  Outro – Guitar 1
e|---------------||----------------------------------------------------------|
B|---------------||----------------------------------------------------------|
G|---------------||----------------------------------------------------------|
D|---------------||--77-777-777-777-766-666-666-666-33-33-33-33-22-22-66-66--|
A|--00000-00000--||--77-777-777-777-766-666-666-666-33-33-33-33-22-22-66-66--|
D|--00000-00000--||--77-777-777-777-766-666-666-666-33-33-33-33-22-22-66-66--|
    ..... .....

  Outro 2 - Guitar 1
e|--------------------------------------------------------------------|
B|--------------------------------------------------------------------|
G|--------------------------------------------------------------------|
D|--7777777777779977666666666666776633333333333333332222222266666666--|
A|--7777777777779977666666666666776633333333333355332222222266666666--|
D|--7777777777779977666666666666776633333333333355332222222266666666--|

  Outro 2 – Guitar 2
e|-----------------------------------------------|
B|-----------------------------------------------|
G|-----------------------------------------------|
D|--9-9-7-9~----7-9-10-9-7--7-7-5-7~----5-7-8-7--|
A|--7-7-5-7~----5-7-8--7-5--5-5-3-5~----3-5-6-5--|
D|-----------------------------------------------|

  Outro 3 – Guitar 1
e|--------------------------------------------|
B|--------------------------------------------|
G|--------------------------------------------|
D|--7~----9-7-6~----7-3~----5-3-2~----6~------|
A|--7~----9-7-6~----7-3~----5-3-2~----6~------|
D|--7~----9-7-6~----7-3~----5-3-2~----6~------|


  End
e|-----------------------------------------------|
B|-----------------------------------------------|
G|-----------------------------------------------|
D|--9-9-7-9~----7-9-10-9-7--7-7-5-7~----5-7-8-7--|
A|--7-7-5-7~----5-7-8--7-5--5-5-3-5~----3-5-6-5--|
D|-----------------------------------------------|
            
Submit corrections

comments powered by Disqus
↑ Back to top | Gallows Tabs for Queensberry Rules. Lyrics for acoustic guitar and electric guitar. Tablatures and chords are parodies/interpretations of the original songs. You may use it for private study, scholarship, research or language learning purposes only