>
 >
Mondo Chaos

Mondo Chaos Guitar Tabs

Gallows - Mondo Chaos chords, tabs, tablatures, lyrics

Guitar lessons | Add/correct | Request | Top 50 tabs Artists:  A B C D E F G H I J K L M N O P Q R S T U V W X Y Z 0-9

Mondo Chaos Guitar Tabs – Gallows

CD, Sheet music, Poster

Do you like Mondo Chaos? Share with your friends now
Tabs
----------------------------------------------------------------------------
----------------------------------------------------------------------------


Tuning: Drop D


Intro (Riff)

e|----------------------------------0-------------------------------------|
B|----------------------------------0-------------------------------------|
G|---7-778-777----------------------0-------------------------------------|
D|---7-778-777--777-x-444X3-666656-0-------------------------------------|
A|---5-556-555--777-x-444----666656-0-------------------------------------|
E|--------------777-x-444----666656-0-------------------------------------|

Chorus

e|------------------------------------------------------------------------|
B|------------------------------------------------------------------------|
G|---7-778-777---------------I SAY ITS ALREADY FUCKED-------------------|
D|---7-778-777--777-x-444X2--6-------------------------------------------|
A|---5-556-555--777-x-444-----6-------------------------------------------|
E|--------------777-x-444-----6-------------------------------------------|

Bridge

e|------------------------------------------------------------------------|
B|------------------------------------------------------------------------|
G|------------5-----------------------------------------------------------|
D|--0----3----5---3-3-----------------------------------------------------|
A|--0----3----3---3-3-X2--------------------------------------------------|
E|--0----3--------3-3-----------------------------------------------------|

Verse 2

e|------------------------------------------------------------------------|
B|---------------------------------------------(Second Time)--------------|
G|------------------------5555555-(First Time)-------5-------------------|
D|--0000000----3333333----5555555---3333333------3333-5-3------X2-0-------|
A|--0000000----3333333----3333333---3333333------3333-3-3---------0-------|
E|--0000000----3333333--------------3333333------3333---3---------0-------|

Riff

e|------------------------------------------------------------------------|
B|------------------------------------------------------------------------|
G|---7-778-777-----------------(DRUMS)------------------------------------|
D|---7-778-777--777-x-444X3----------------------------------------------|
A|---5-556-555--777-x-444-------------------------------------------------|
E|--------------777-x-444-------------------------------------------------|

Chorus

e|----------------------------------0-------------------------------------|
B|----------------------------------0-------------------------------------|
G|---7-778-777----------------------0-------------------------------------|
D|---7-778-777--777-x-444X3-666656-0---X2--------------------------------|
A|---5-556-555--777-x-444----666656-0-------------------------------------|
E|--------------777-x-444----666656-0-------------------------------------|
Riff 2

e|------------------------------------------------------------------------|
B|------------------------------------------------------------------------|
G|--8-7-5-7--8-7-55-7-5----8-7-5-7----------------------------------------|
D|--8-7-5-7--8-7-55-7-5----8-7-5-7-6-66-6666---X4-------------------------|
A|--6-5-3-5--6-5-33-5-3----6-5-3-5-6-66-6666------------------------------|
E|---------------------------------6-66-6666------------------------------|

Bridge 2

e|------------------------------------------------------------------------|
B|------------------------------------------------------------------------|
G|------------------------5-------88888888-77777777-----5-----------------|
D|---7---7------3---3--0--5-3-----88888888-77777777X4--5-3--0------------|
A|---7---7------3---3--0--3-3-----(Palm Muted)----------3-3--0------------|
E|-77--77-----33--33---0----3-----------------------------3--0------------|

Chorus

e|------------------------------------------------------------------------|
B|------------------------------------------------------------------------|
G|---7-778-777------------------------------------------------------------|
D|---7-778-777--777-x-444X3-666656-0---X2--0-----------------------------|
A|---5-556-555--777-x-444----666656-0-------0-----------------------------|
E|--------------777-x-444----666656-0-------0-----------------------------|





Comments


Popular Gallows tabs & chords
Crucifucks Bass Tabs
I Dread The Night Bass Tabs
Misery 1 Bass Tabs
The Riverbed Bass Tabs
The Vulture Act 1 Chords
The Vulture Act I Chords
Abandon Ship Rhythm Tabs
In The Belly Of A Shark Tabs
Rolling With The Punches Intro Tabs
Rolling With The PunchesIntro Tabs


Song lyrics



↑ Back to top | Tablatures and chords are parodies/interpretations of the original songs. You may use it for private study, scholarship, research or language learning purposes only
© 2014 AZChords.com Contact us | Privacy policy | DMCA | Add/correct tabs | Request tabs | Top 50 tabs