>
 >
London Is The Reason

London Is The Reason Guitar Tabs

Gallows - London Is The Reason chords, tabs, tablatures, lyrics

Guitar lessons | Add/correct | Request | Top 50 tabs Artists:  A B C D E F G H I J K L M N O P Q R S T U V W X Y Z 0-9

London Is The Reason Guitar Tabs – Gallows

CD, Sheet music, Poster

Do you like London Is The Reason? Share with your friends now
Tabs


Tuning: Drop D


  Intro
e|--------------------------|
B|--0--------------------0--|
G|--2^4------------[x7]--3--|
D|------0-2-----------------|
A|----------0-1-2-----------|
D|--------------------------|

  
  Verse
e|-------------------------------|
B|-------------------------------|
G|----------------------3333333--| x2
D|--22-0-2--0-2-0[x3]--3333333--|
A|--22-0-2--0-2-0-------1111111--|
D|--22-0-2--0-2-0----------------|


  Pre-Chorus
e|-------------------------------|
B|--0--------------------0~------|
G|--2^4------------[x7]--3~------|
D|------0-2--------------3~------|
A|----------0-1-2--------1~------|
D|-------------------------------|

  
  Chorus  Guitar 1
e|----------------------------------------|
B|----------------------------------------|
G|----------------------------------------|
D|--7-77775--8-88885-2-2-02320-2-2-02320--|
A|--7-77775--8-88885-2-2-02320-2-2-02320--|
D|--7-77775--8-88885-2-2-02320-2-2-02320--|

  Chorus  Guitar 2
e|------------------------------------------------------------12----12----12----15--|
B|-------------------12---------------------------------------15^17-15^17-15^17-----|
G|-------------------14^15-14p12----------12----------------------------------------|
D|--7-77775--8-88885-------------14-12h14----7-77775--8-88885-----------------------|
A|--7-77775--8-88885-------------------------7-77775--8-88885-----------------------|
D|--7-77775--8-88885-------------------------7-77775--8-88885-----------------------|


  Verse
e|-------------------------------||----------------------------------------------------|
B|----------------------0000000--||----------------------------------------------------|
G|----------------------3333333--||----------------------3333333333333333--------------| 
D|--22-0-2--0-2-0[x3]--3333333--||--22-0-2--0-2-0[x3]--3333333333333333-2~--------2--|
A|--22-0-2--0-2-0-------1111111--||--22-0-2--0-2-0-------1111111111111111-2~--------2--|
D|--22-0-2--0-2-0----------------||--22-0-2--0-2-0------------------------2~--------2--|


  Bridge  Guitar 1
e|--12-7-8-13-7-8-12-7-8-10-7-10-7--------12-7-8-13-7-8-10~------|
B|---------------------------------------------------------------|
G|----------------------------------[x9]-------------------------|
D|---------------------------------------------------------------|
A|---------------------------------------------------------------|
D|---------------------------------------------------------------|
  Tap every note. Right hand on 10, 12 & 13. Left hand on 7 & 8

Bridge - Guitar 2
e|----------------------------------------------------------------|
B|----------------------------------------------------------------|
G|----------------------------------------------------------------|
D|--2-5-8-7~-----2--------2-5-8-7--2-5-8~----2-5-8-7--2-5-0~------|
A|--2-5-8-7~-----2--------2-5-8-7--2-5-8~----2-5-8-7--2-5-0~------|
D|--2-5-8-7~-----2--------2-5-8-7--2-5-8~----2-5-8-7--2-5-0~------|


  Solo  Guitar 1
e|--12--12---||--12-----12-----12-----12--12---------------|
B|--15^-15^--||--15^-15-15^-15-15^-15-15^----151515--------|
G|-----------||--------------------------------------[x4]--|
D|-----------||--------------------------------------------|
A|-----------||--------------------------------------------|
D|-----------||--------------------------------------------|

e|--------15----17----15----17----15----17----15-----------18^-18^-18^-18^-18^19^18-15--|
B|--15h17----17----17----17----17----17----17----17-------------------------------------|
G|---------------------------------------------------[x3]-------------------------------|
D|--------------------------------------------------------------------------------------|
A|--------------------------------------------------------------------------------------|
D|--------------------------------------------------------------------------------------|

  Solo  Guitar 2
e|-------------------------------------------0~------------|
B|-------------------------------------------0~------------|
G|-------------------------------------------0~------------|
D|--222-555-888-777-12121212--[x8]--2--5--8~---------------|
A|--222-555-888-777-12121212--------2--5--8~---------------|
D|--222-555-888-777-12121212--------2--5--8~---------------|





Comments


Popular Gallows tabs & chords
I Dread The Night Bass Tabs
Staring At The Rude Bois Bass Tabs
The Vulture Act I Chords
Death Voices Tabs
Gold Dust 1 Tabs
In The Belly Of A Shark 5 Tabs
Last June Tabs
Nervous Breakdown Tabs
Rolling With The Punches Intro Tabs
Staring At The Rude Bois 1 Tabs


Song lyrics



↑ Back to top | Tablatures and chords are parodies/interpretations of the original songs. You may use it for private study, scholarship, research or language learning purposes only
© 2014 AZChords.com Contact us | Privacy policy | DMCA | Add/correct tabs | Request tabs | Top 50 tabs