» » »

Gallows, Kill The Bass tabs (ver.1)

Artists:  A B C D E F G H I J K L M N O P Q R S T U V W X Y Z # 

Kill The Bass tabs (ver.1)

Gallows Tabs
 Rating:
4/5 (4 votes)
Kill The lessons Tabs too difficult? Try these video lessons and learn fast
1
                (Rhythm)


G|-------------------------------------------------|
D|-------------------------------------------------|
A|-------------------------------------------------|
E|--5-3535-3-5-3535-3-5-3535-3-5-3535-3------------|


REST

G|-------------------------------------------------------------------------|
D|-------------------------------------------------------------------------|
A|---9-9-9-9-8--8-8-8-3-3334-444-------------------------------------------|
E|--- -------------------------------5-3535-3-5-3535-3-5-3535-3-5-3535-3---|

G|-----------------------------------------------------------------------|
D|-----------------------------------------------------------------------|(x2)
A|--5-5-5-5-5-5-5---------------------5-5-5-5-5-5-5----------------------|
E|-----------------333-555-666-565-0----------------333-555-111-666-0----|


G|--------------------------------------------------------------------------|
D|--------------------------------------------------------------------------|
A|---9-9-9-9-8--8-8-8-3-3334-444--------------------------------------------|
E|--- -------------------------------5-3535-3-5-3535-3-5-3535-3-5-3535-3-0--|

G|--------------------------------------------------------------------------|
D|--------------------------------------------------------------------------|
A|---9-9-9-9-8--8-8-8-3-3334-444--------------------------------------------|
E|--- -------------------------------5-3535-3-5-3535-3-5-3535-3-5-3535-3-0--|

G|-----------------------------------------------------------------------|
D|-----------------------------------------------------------------------|(x2)
A|--5-5-5-5-5-5-5---------------------5-5-5-5-5-5-5----------------------|
E|-----------------333-555-666-565-0----------------333-555-111-666-0----|

G|----------------------------------------------------------------|
D|----------------------------------------------------------------|(x4)
A|----------------------------------------------------------------|
E|--0-----------00-----------00------------333-3555-5111-1666-6---|

OR

G|-----------------------------------------------------------------|
D|-----------------------------------------------------------------|
A|-------76-65------76-66-5-----76-65------------------------------|(x4)
D|--0------------0------------0------------333-3555-5111-1666------|


G|-------------------------------------------------------|
D|-------------------------------------------------------|(x2)
A|-------------------------------------------------------|
E|---0~----------3~----------5~----------3~-----5~-------|

G|-------------------------------------------------------------|
D|-------------------------------------------------------------|
A|-------------------------------------------------------------|(x2)
E|---0-0-0-0-0-0-3-3-3-3-3-3-5-5-5-5-5-5-3-3-3-5-5-5--0--------|

G|---------------------------------------------------------------------------|
D|---------------------------------------------------------------------------|
A|--------------------------------------5-5-5-5-5-5-5------------------------|
D|-------------------333-555-666-565-0-----------------333-555-111-6666-0----|

G|---------------------------------------------------------------------------|
D|---------------------------------------------------------------------------|
A|----5-5-5-5-5-5-5----------------------5-5-5-5-5-5-5-----------------------|
D|-------------------333-555-666-565-0-----------------333-555-111-6666-0----|

G|-------------------------------------------|
D|-------------------------------------------|
A|-------------------------------------------|
E|----333-3555-5111-1666-60------------------|
            
Submit corrections

comments powered by Disqus
↑ Back to top | Gallows Bass for Kill The. Lyrics for acoustic guitar and electric guitar. 1 Tablatures and chords are parodies/interpretations of the original songs. You may use it for private study, scholarship, research or language learning purposes only