» » »

Gallows, Just Beacuse You Sleep Next To Me Doesnt Mean Youre Safe Tabs (ver.1)

Artists:  A B C D E F G H I J K L M N O P Q R S T U V W X Y Z # 

Just Beacuse You Sleep Next To Me Doesnt Mean Youre Safe Tabs (ver.1)

Gallows Tabs
Rating:
0/5 (0 votes)
Just Beacuse You Sleep Next To Me Doesnt Mean Youre Safe lessons Tabs too difficult? Try these video lessons and learn fast
                trop d tune dat sh*t!, cant be arsed typin out the strum pattern
not 100% sure this is correct but i saw someone elses who had a good attempt but got
bits very wrong, so ive tried sticking it with mine
(this is song is totally 2 guitars, but ive jst tabbed it for one, seems to sound alright)
this is my first tab, so when you get to the break down bit, i wasnt too sure how to
out a "Pull off" so i jst threw a (p) between two notes to show u pull off 10 to 7 eg --10(p)7---

intro

e------------------------------------------------------------------|
b------------------------------------------------------------------|
g--8---------8--------8-8-----8---------8--------8-8--12--12-------|
d--x-5-6-5---x-5-6-5--x-x-----x-5-6-5---x-5-6-5--x-x---x---x-------|
a--6-5-6-5---6-5-6-5--6-6-----6-5-6-5---6-5-6-5--6-6--10--10-------|
d----5-6-5-----5-6-5------------5-6-5-----5-6-5--------------------|


e-------------------------------------------------------------|
b-------------------------------------------------------------|
g--8---------8--------8-8-8-8---------8--------8-8------------|
d--x-5-6-5---x-5-6-5--x-x-x-x-5-6-5---x-5-6-5--x-x--0---------|
a--6-5-6-5---6-5-6-5--6-6-6-6-5-6-5---6-5-6-5--6-6--0---------|
d----5-6-5-----5-6-5----------5-6-5-----5-6-5-------0---------|
                                                    (let ring)

ninja wail the guitar with a pick slide

verse

e-----------------------------------------------------------|
b-----------------------------------------------------------|
g-------------------------------8---------------------------|
d--0-----5-6-6-6-6-5------------x---------------------------|
a--0-----5-6-6-6-6-5------------6---------------------------|
d--0-----5-6-6-6-6-5----------------------------------------|

smash that opoen chord chord then slide from 5th to 6th and hit that twice as hard then
the 5th back to open, and repeat until the high pitch chord

chorus

e--------------------------------------------------------------|
b--------------------------------------------------------------|
g--------------7----7------------------------------------------|
d--5---6-------5----6------------------------------------------|
a--5---6-------5----6------------------------------------------|
d--5---6-------5----6------------------------------------------|
   (after bout 2 repeats add the higher note


repeat intro, verse and chorus

bridge - i think its this, not 100% sure, jst mess round with 5,6,7,8th fret throw an 
in maybe...

e-----------------------------------------------------------|
b-----------------------------------------------------------|
g-----------------------------------------------------------|
d--5--8--7--8--0--------------------------------------------|
a--5--8--7--8--0--------------------------------------------|
d--5--8--7--8--0--------------------------------------------|
              (first couple times end on this
then bass solo, (which is just the same)

(this is played a wee bit slower)
e-----------------------------------------------------------|
b-----------------------------------------------------------|
g-----------------------------------------------------------|
d--5--8--7--8--0--------------------------------------------|
a--5--8--7--8--0--------------------------------------------|
d--5--8--7--8--0--------------------------------------------|
               (palm mute)

now the break down, which if you wana play it right, you need to turn your amp to full,
on loads of distortion pedals, make sure your playing infront of alot of ppl who are
to throw themselves around and generally as disturbed would say "bring the sickness"
now slay.........
(im afraid youl have to work out where the breaks are etc..)

e-----------------------------------------------------------|
b-----10(p)7--9(p)7--------------------6(p)3--5(p)3---------|
g-----------------------------------------------------------|
d--0---------------------------------0----------------------|
a--0---------------------------------0----------------------|
d--0---------------------------------0----------------------|

play verse again!
            
Submit corrections

comments powered by Disqus
↑ Back to top | Gallows Tabs for Just Beacuse You Sleep Next To Me Doesnt Mean Youre Safe. Lyrics for acoustic guitar and electric guitar. Tablatures and chords are parodies/interpretations of the original songs. You may use it for private study, scholarship, research or language learning purposes only