>
 >
I Dread The Night

I Dread The Night Guitar Tabs

Gallows - I Dread The Night chords, tabs, tablatures, lyrics

Guitar lessons | Add/correct | Request | Top 50 tabs Artists:  A B C D E F G H I J K L M N O P Q R S T U V W X Y Z 0-9

I Dread The Night Guitar Tabs – Gallows

CD, Sheet music, Poster

Do you like I Dread The Night? Share with your friends now
Bass TabsTabs


Tuning: Drop D


  0:00
e|-----------------------------------------------|
B|-----------------------------------------------|
G|----------------8888[x3]--5555------5555-333--|
D|--577-57-57-575-8888-------5555-555--5555-333--|
A|--577-57-57-575-6666-------3333-555--3333-111--|
D|--577-57-57-575-----------------555------------|


  0:24  Guitar 1
e|-----------------------------------------------------------------------------|
B|-----------------------------------------------------------------------------|
G|--2~------------------------------------------------------5555-----5555-333--|
D|--2~------------------------------------------------------5555-555-5555-333--|
A|--0~------------------------------------------------------3333-555-3333-111--|
D|---------------------------------------------------------------555-----------|

  0:24  Guitar 2
e|--------------------------------8888-------------------------------10101010--|
B|--10-10-10-10-10^-10-10^-10-10^------10-10-10-10-10^-10-10^-10-10^-----------|
G|-----------------------------------------------------------------------------|
D|-----------------------------------------------------------------------------|
A|-----------------------------------------------------------------------------|
D|-----------------------------------------------------------------------------|

e|--------------------------------8888\\\---------------------|
B|--10-10-10-10-10^-10-10^-10-10^-----------------------------|
G|-----------------------------------------5555-----5555-333--|
D|-----------------------------------------5555-555-5555-333--|
A|-----------------------------------------3333-555-3333-111--|
D|----------------------------------------------555-----------|


  0:48  Guitar 1
e|--------------------------------------------------------------------------|
B|--------------------------------------------------------------------------|
G|-------555577779999------555577779999------555577779999-9999777755554444--|
D|--7777--------------6666--------------5555--------------------------------|
A|--7777-333355557777-6666-333355557777-5555-333355557777-7777555533332222--|
D|--7777--------------6666--------------5555--------------------------------|

  0:48  Guitar 2
e|---------------------------------------------------------------------------------------|
B|--10101010101010101010101010101010-9999999999999999-8888888888888888-------------------|
G|---------------------------------------------------------------------7777777777777777--|
D|--7-7-7-7-7-7-7-7-7-7-7-7-7-7-7-7--6666666666666666-5555555555555555-------------------|
A|---------------------------------------------------------------------5555555555555555--|
D|---------------------------------------------------------------------------------------|


  1:38  Guitar 1
e|-----------------------------------------------|
B|----------------------1-----------------1h3p1--|
G|--0h2-0h2-0h2-0h2-0h2---0h2-0h2-0h2-0h2--------|
D|-----------------------------------------------|
A|-----------------------------------------------|
D|-----------------------------------------------|

 1:51  Guitar 2
e|-----------------------------------------------|
B|----------------------5-----------------5h6p5--|
G|--4h5-4h5-4h5-4h5-4h5---4h5-4h5-4h5-4h5--------|
D|-----------------------------------------------|
A|-----------------------------------------------|
D|-----------------------------------------------|


  2:00
e|------------------------------|
B|------------------------------|
G|--55-xxxx---------55-xxxx-33--|
D|--55-xxxx-55-xxxx-55-xxxx-33--|
A|--33-xxxx-55-xxxx-33-xxxx-11--|
D|----------55-xxxx-------------|


  2:02
e|---------------------------------------------------------|
B|---------------------------------------------------------|
G|-------5-----7-----8-8[x3]--55-xxxx---------55-xxxx-33--|
D|--57-7-5-7-7-7-7-7-8-8-------55-xxxx-55-xxxx-55-xxxx-33--|
A|--57-7-3-7-7-5-7-7-6-6-------33-xxxx-55-xxxx-33-xxxx-11--|
D|--57-7---7-7---7-7-------------------55-xxxx-------------|


  2:15
e|-------------------------------------------------------------------------------------------|
B|-------------------1-------------------4-------------------10------------------------------|
G|-------5-----7-----3^------5-----7-----6^------5-----7-----12^-55-xxxx---------55-xxxx-33--|
D|--57-7-5-7-7-7-7-7----57-7-5-7-7-7-7-7----57-7-5-7-7-7-7-7-----55-xxxx-77-xxxx-55-xxxx-33--|
A|--57-7-3-7-7-5-7-7----57-7-3-7-7-5-7-7----57-7-3-7-7-5-7-7-----33-xxxx-77-xxxx-33-xxxx-11--|
D|--57-7---7-7---7-7----57-7---7-7---7-7----57-7---7-7---7-7-------------55-xxxx-------------|


  2:27
e|-------------------------------------|
B|-------------------------------------|
G|------------------[x3]--5------5--3--|
D|---------------1--------5--5---5--3--|
A|------3---5----1--------3--5---3--1--|
D|--57-7-7-7-7-7-1-----------5---------|


  3:14  Guitar 1
e|---------------------------------------------------------------------------------------------|
B|--10101010101010101010101010131313-9999999999999131313-8888888888888131313-------------------|
G|---------------------------------------------------------------------------7777777777777777--|
D|--7-7-7-7-7-7-7-7-7-7-7-7-7-101010-6666666666666101010-5555555555555101010-------------------|
A|---------------------------------------------------------------------------5555555555555555--|
D|---------------------------------------------------------------------------------------------|

  3:14  Guitar 2
e|------------------------------------------------------------------|
B|--10101010-13131313-15151515-17171717--------1717-1515-1313-1212--|
G|---------------------------------------[x3]-----------------------|
D|--7-7-7-7--10101010-12121212-14141414--------1414-1212-1010-9-9---|
A|------------------------------------------------------------------|
D|------------------------------------------------------------------|

  3:26
e|-----------------|
B|--10~------------|
G|-----------------|
D|--7~-------------|
A|-----------------|
D|-----------------|





Comments


Popular Gallows tabs & chords
Abandon Ship Bass Tabs
Kill The Rhythm Bass Tabs
Abandon Ship Rhythm Tabs
Cross Of Lorraine Tabs
In The Belly Of A Shark 1 Tabs
In The Belly Of A Shark 3 Tabs
In The Belly Of A Shark 5 Tabs
Mondo Chaos Tabs
The Riverbank Tabs
The Vulture Act 2 1 Tabs


Song lyrics



↑ Back to top | Tablatures and chords are parodies/interpretations of the original songs. You may use it for private study, scholarship, research or language learning purposes only
© 2014 AZChords.com Contact us | Privacy policy | DMCA | Add/correct tabs | Request tabs | Top 50 tabs