>
 >
Graves

Graves Guitar Tabs

Gallows - Graves chords, tabs, tablatures, lyrics

Guitar lessons | Add/correct | Request | Top 50 tabs Artists:  A B C D E F G H I J K L M N O P Q R S T U V W X Y Z 0-9

Graves Guitar Tabs – Gallows

CD, Sheet music, Poster

Do you like Graves? Share with your friends now
Tabs
-------------------------------------------------------------------------------
-------------------------------------------------------------------------------


I figured this song out a while ago and decided to finally tab it,
Still not too sure on the breakdown/end of the song,
i think they played and recorded it in drop C 
but either way you can sort of get the low bend by bending your bridge,
using a whammy bar or even the neck,though dangerous.

For the chorus i've put a variated part for the 1st guitar
to play the lead part if you're covering the song or just want to play it
with one guitar which i usually do.

One of the best songs on an awesome album,enjoy. =]


Intro 00:00

Both guitars:
e|------------------------------------------------------------------------------------|
B|------------------------------------------------------------------------------------|
G|-----------10-----------10-----------10-----------------------------10-----------10-|
D|-----------9------------9------------9------------------------------9------------9--|
A|-0-7-0-----8--0-7-0-----8--0-7-0-----8---------------1-3-1--7-0-----8--0-7-0-----8--|
D|-0-7-0-9p0----0-7-0-9p0----0-7-0-9p0-----0-0-3-1-0-0--------7-0-9p0----0-7-0-9p0----|

-----------------------------|
-----------------------------|
-----------10----------------|
-----------9-----------------|
-0-7-0-----8-------------1-3-|
-0-7-0-9p0----0-0-3-1-0-0----|

Verse
00:09

Guitar 1:
e|-----------------------------------------------------|
B|-----------------------------------------------------|
G|------7/8-7---------7/8-7---------7/8-7--------------| X4
D|------7/8-7---------7/8-7---------7/8-7--------3-5---|
A|--7-0-5/6-5--0-7-0--5/6-5--0-7-0--5/6-5--0-1-3-1-3---|
D|--7-0--------0-7-0---------0-7-0---------0-1-3-------|



Guitar 2:
e|------------------------------------------------------|
B|------------------------------------------------------|
G|-------7/8-7---------7/8-7---------7/8-7--------------| X4
D|-------x/x-x---------x/x-x---------x/x-x--------3-5---|
A|--7-0--5/6-5--0-7-0--5/6-5--0-7-0--5/6-5--0-1-3-1-3---|
D|--7-0---------0-7-0---------0-7-0---------0-1-3-------|


Chorus 00:28

Guitar 1:
e|------------------------------------------------------------------------------|
B|----0--0--0--0--0--0----------------------0--0--0--0--0--0--------------------|
G|-2--3-(3)(3)(3)(3)(3)------------------2--3-(3)(3)(3)(3)(3)-------------------|
D|-2--------------------3-3-2-2-3-3-5-5--2--------------------3-3-2-2-3-3-5-5---|
A|-0--------------------3-3-2-2-3-3-5-5--0--------------------3-3-2-2-3-3-5-5---|
D|----------------------3-3-2-2-3-3-5-5-----------------------3-3-2-2-3-3-5-5---|
Bend the 3 up to a b, so it sounds the same as the 4th fret on the G string then back.


Guitar 2:
e|-----------------------------------------------------|
B|----0--0--0--0--0--0---------------------------------|
G|-2--3-(3)(3)(3)(3)(3)10-10--9--9--10-10-12-12--------|
D|-2--------------------x--x--x--x--x--x--x--x---------| X2
A|-0--------------------8--8--7--7--8--8--10-10--------|
D|-----------------------------------------------------|


[VARIATION:]

Guitar 1:
e|------------------------------------------------------------------------------|
B|----0--0--0--0--0--0--6-6-5-5-6-6-8-8-----0--0--0--0--0--0--6-6-5-5-6-6-8-8---|
G|-2--3-(3)(3)(3)(3)(3)-x-x-x-x-x-x-x-x--2--3-(3)(3)(3)(3)(3)-x-x-x-x-x-x-x-x---|
D|-2--------------------3-3-2-2-3-3-5-5--2--------------------3-3-2-2-3-3-5-5---|
A|-0--------------------3-3-2-2-3-3-5-5--0--------------------3-3-2-2-3-3-5-5---|
D|----------------------3-3-2-2-3-3-5-5-----------------------3-3-2-2-3-3-5-5---|



Pre Verse 00:36

Guitar 1:
e|---------------------------------------------------------------|
B|---------------------------------------------------------------|
G|---------------------------------------------------------------|
D|-----------------------------------------------------------3-5-|
A|-----------8^----------8^------------8^-----------8^~--3-1-1-3-|
D|-0-7-0-9p0----0-7-0-9p0----0-7-0-9p0----0-7-0-9p0------3-1-----|

Guitar 2:
e|----------------------------------------------------------------|
B|----------------------------------------------------------------|
G|----------------------------------------------------------------|
D|---7------------7------------7-------------7---------------3-5--|
A|-0-7----------0-7----------0-7-----------0-7-----------3-1-1-3--|
D|-0-7----------0-7----------0-7-----------0-7-----------3-1------|


Verse:00:41

Guitar 1:
e|-----------------------------------------------------|
B|-----------------------------------------------------|
G|------7/8-7---------7/8-7---------7/8-7--------------| X4
D|------7/8-7---------7/8-7---------7/8-7--------3-5---|
A|--7-0-5/6-5--0-7-0--5/6-5--0-7-0--5/6-5--0-1-3-1-3---|
D|--7-0--------0-7-0---------0-7-0---------0-1-3-------|



Guitar 2:
e|------------------------------------------------------|
B|------------------------------------------------------|
G|-------7/8-7---------7/8-7---------7/8-7--------------| X4
D|-------x/x-x---------x/x-x---------x/x-x--------3-5---|
A|--7-0--5/6-5--0-7-0--5/6-5--0-7-0--5/6-5--0-1-3-1-3---|
D|--7-0---------0-7-0---------0-7-0---------0-1-3-------|


Chorus:00:59

Guitar 1:
e|------------------------------------------------------------------------------|
B|----0--0--0--0--0--0----------------------0--0--0--0--0--0--------------------|
G|-2--3-(3)(3)(3)(3)(3)------------------2--3-(3)(3)(3)(3)(3)-------------------|
D|-2--------------------3-3-2-2-3-3-5-5--2--------------------3-3-2-2-3-3-5-5---| X2
A|-0--------------------3-3-2-2-3-3-5-5--0--------------------3-3-2-2-3-3-5-5---|
D|----------------------3-3-2-2-3-3-5-5-----------------------3-3-2-2-3-3-5-5---|



Guitar 2:
e|-----------------------------------------------------|
B|----0--0--0--0--0--0---------------------------------|
G|-2--3-(3)(3)(3)(3)(3)10-10--9--9--10-10-12-12--------|
D|-2--------------------x--x--x--x--x--x--x--x---------| X4
A|-0--------------------8--8--7--7--8--8--10-10--------|
D|-----------------------------------------------------|


Pre break:01:18

Both guitars:

e|-------------------------------------------------------------|
B|----0--0--0--0--0--0--0--0--0--0--0--0--0--0--0--0--0--0--0--|
G|-2--3-(3)(3)(3)(3)(3)(3)(3)(3)(3)(3)(3)(3)(3)(3)(3)(3)(3)(3)-|
D|-2-----------------------------------------------------------| 
A|-0-----------------------------------------------------------|
D|-------------------------------------------------------------|


Breakdown:01:27

Guitar 1:

e|-0--0---2--2---0--0---3--3-|-0--0---2--2---0--0---3--3------|
B|---0--0--0--0---0--0---0--0|--0--0---0--0---0--0---0--0-----|
G|---------------------------|--------------------------------|
D|---------------------------|--------------------------------|
A|---------------------------|--------------------------------|
D|---------------------------|--------------------------------|
  Let each note ring. 

Guitar 2:
e|--------------------------------------------------------------------|
B|--------------------------------------------------------------------|
G|--------------------------------------------------------------------|
D|------------------------------2-2-----------------------------------|
A|------------------------------2-2-----------------------------------|
D|------------------------------2-2-----------------------------------|


Guitar 1:
e|-0--0---2--2---0--0---3--3-|-0--0---2--2---0--0---3--3-----|
B|---0--0--0--0---0--0---0--0|--0--0---0--0---0--0---0--0----|
G|---------------------------|-------------------------------|
D|---------------------------|-------------------------------|
A|---------------------------|-------------------------------|
D|---------------------------|-------------------------------|



Guitar 2:
e|--------------------------------------------------------------------|
B|--------------------------------------------------------------------|
G|--------------------------------------------------------------------|
D|-----2------------------------2-2-2-------------2-------------------|
A|-----2------------------------2-2-2-------------2-------------------|
D|-----2------------------------2-2-2-------------2--1/13/------------|


Breakdown:01:47

Both guitars:
e|------------------------------------------------------------|
B|------------------------------------------------------------|
G|------------------------------------------------------------|
D|------------------------------------------------------------|
A|-2-1-0-(0)bd--1-4-------------------------------------------|
D|-2-1-0-(0)bd--1-4-------------------------------------------|


Additional Guitar track:
e|-0--0---2--2---0--0---3--3-|-0--0---2--2---0--0---3--3-----|
B|---0--0--0--0---0--0---0--0|--0--0---0--0---0--0---0--0----|
G|---------------------------|-------------------------------|
D|---------------------------|-------------------------------|
A|---------------------------|-------------------------------|
D|---------------------------|-------------------------------|
Repeat until the end.

Ending of the ending:2:18

Both guitars:
e|------------------------------------------------------------|
B|------------------------------------------------------------|
G|------------------------------------------------------------|
D|------------------------------------------------------------|
A|-2-1-0-(0)bd--1-4-------------------------------------------|
D|-2-1-0-(0)bd--1-4-------------------------------------------|
Repeat each chord 8 times.


| /  slide up
| \  slide down
| h  hammer-on
| p  pull-off
| ~  vibrato
| +  harmonic
| x  Mute note
===============================================================================





Comments


Popular Gallows tabs & chords
Crucifucks Bass Tabs
Just Because You Sleep Next To Me Doesn't Mean You're Safe Bass Tabs
Leechees Bass Tabs
Abandon Ship 1 Tabs
Gold Dust Tabs
Gold Dust 1 Tabs
In The Belly Of A Shark 4 Tabs
Staring At The Rude Bois 1 Tabs
The Riverbank Tabs
Vapid Adolescent Blues Tabs


Song lyrics



↑ Back to top | Tablatures and chords are parodies/interpretations of the original songs. You may use it for private study, scholarship, research or language learning purposes only
© 2014 AZChords.com Contact us | Privacy policy | DMCA | Add/correct tabs | Request tabs | Top 50 tabs