» » »

Gold Dust Tabs (ver.2)

Artists:  A B C D E F G H I J K L M N O P Q R S T U V W X Y Z # 

Gold Dust Tabs (ver.2)

Gallows
Rating:
0/5 (0 votes)

Hard to play? Try these video lessons and learn fast.
                Gallows - Gold Dust
Drop D
Then, Now I Do, So Here You Go.


Short Hardcore Punk Song - 1.00 long i think

Intro

|--------------------|
|--------------------|
|--------------------|
|--------------------|
|-----5--3--6--3-----|
|-----5--3--6--3-----|

Verse

|--------------------|----------------------|
|--------------------|----------------------|
|--------------------|----------------------|
|--------------------|----------------------|
|--0--0-0-0--3--5--6-|--0--0-0-0-0--6--5--3-|
|--0--0-0-0--3--5--6-|--0--0-0-0-0--6--5--3-|

|---------------------|--------------------|
|---------------------|--------------------|
|---------------------|--------------------|
|---------------------|--------------------|
|--0--0-0-0--3--5--6--|--5--3--6--3--------|
|--0--0-0-0--3--5--6--|--5--3--6--3--------|


Chorus

|-------------------------------------------|
|-------------------------------------------|
|-------------------------------------------|
|-------------------------------------------|
|--5-5-5--8--5-5-5--6--5-5-5--8--5-5--3-3---|
|--5-5-5--8--5-5-5--6--5-5-5--8--5-5--3-3---|

Solo

|------------|-----------|-----------|--------------|
|------------|-----------|-----------|--------------|
|------------|-----------|-----------|--------------|
|--5/7--5--3-|----------3|-5/7--5--3-|-------3h5-3--|
|------------|-5--3--5---|-----------|-5--3---------|
|------------|-----------|-----------|--------------|

|------------|-----------|-----------|---------------|
|------------|-----------|-----------|---------------|
|------------|-----------|-----------|---------------|
|--5/7--5--3-|----------3|-5/7--5--3-|---------------|
|------------|-5--3--5---|-----------|--5-5-3-6------|
|------------|-----------|-----------|--5-5-3-6------|

Chords for solo (Listen To Song)

|------------|-----------|-----------|----------------|
|------------|-----------|-----------|----------------|
|------------|-----------|-----------|----------------|
|------------|-----------|-----------|----------------|
|--0---------|--3-----5--|--0--------|--3-----5-5-3-6-|
|--0---------|--3-----5--|--0--------|--3-----5-5-3-6-|

Now All We Need Is The:
............Structure.............
.Intro x1
.Verse x4
.Chorusx1
.Verse x2
.Chorusx1
.Solo
.Verse x2

There You Go! I Have Not Seen Any Tab For This.. So Enjoy
Rate, Comment Please.
Not Many More To Say For This Song Apart From Listen To Song
The Solo Is Very Easy. So Dont't Be Intimidated By It.
Oh Yeah! Gallows Have 2 Guitarists! I Have Only Tabbed For 1 Guitar. Sorry
They Bascically Play The Same Its Just The Intro That Differs.
Kudos....
            
Hard to play? Try these video lessons and learn fast. | Correct




comments powered by Disqus
↑ Back to top | Tablatures and chords are parodies/interpretations of the original songs. You may use it for private study, scholarship, research or language learning purposes only