» » »

Gallows, Death Voices Tabs (ver.1)

Artists:  A B C D E F G H I J K L M N O P Q R S T U V W X Y Z # 

Death Voices Tabs (ver.1)

Gallows Tabs
 Rating:
4.4/5 (7 votes)
Death Voices lessons Tabs too difficult? Try these video lessons and learn fast
1
                

Tuning: Drop D

  
  Intro – Guitar 1
e|----------------------------------------------|
B|----------------------------------------------|
G|----------------------------------------------|
D|---------------------------33333333--5555555--|
A|--00-33-44-0-33-44-0-33-44-33333333--5555555--|
D|---------------------------33333333--5555555--|

  Intro – Guitar 2
e|--------------------------------------|
B|--------------------------------------|
G|--2222222222222222-66666666-----------|
D|--2222222222222222-33333333--5555555--|
A|--0000000000000000-33333333--5555555--|
D|-------------------33333333--5555555--|


  Verse – Guitar 1
e|------------------------------------------------------------------------|
B|------------------------------------------------------------------------|
G|--7-9-10-7-9-10-7-9-10-666666--7777777--[x2]--5-55-7/9-4-44-4-44--[x2]--|
D|------------------------------------------------------------------------|
A|--5-7-8--5-7-8--5-7-8--444444--5555555--------3-33-5/7-2-22-2-22--------|
D|------------------------------------------------------------------------|

  Verse – Guitar 2
e|------------------------------------------------------------------|
B|------------------------------------------------------------------|
G|------------------------------------[x2]--------------------[x2]--|
D|--0--00--0-0-00-0-44444444-5555555--------3333333322222222--------|
A|--0--00--0-0-00-0-44444444-5555555--------3333333322222222--------|
D|--0--00--0-0-00-0-44444444-5555555--------3333333322222222--------|


  Pre-Chorus – Guitar 1
e|------------------------------------------------|
B|------------------------------------------------|
G|------------------------------------------------|
D|--10101099977-10101099977-66667777999910101010--|
A|------------------------------------------------|
D|------------------------------------------------|
    . . . ..... . . . ..... ...........

  Pre-Chorus – Guitar 2
e|------------------------------------|
B|------------------------------------|
G|------------------------------------|
D|--33333333333333332222222222222222--|
A|--33333333333333332222222222222222--|
D|--33333333333333332222222222222222--|
    ................................


  Chorus – Both Guitars
e|------------------------------------------|
B|------------------------------------------|
G|--2-22-5---5/7---7-5------5---5/7---5-44--|
D|--2-22-5-2-5/7-5-7-5-3-33-5-2-5/7-2-5-44--|
A|--0-00-3-0-3/5-5-5-3-3-33-3-0-3/5-2-3-22--|
D|---------------5-----3-33---------2-------|


[PLAY INTRO THROUGH TO CHORUS]


  Bridge
e|---------------------------------------------------------------------------------------|
B|----------------------------------5--5-------------------------------------------------|
G|--2222-5555-777-88888-2222-5555---7^-7^-2222-5555-777-88888-99999999-1313131313131313--|
D|--2222-5555-777-88888-2222-5555-5-------2222-5555-777-88888-99999999-1313131313131313--|
A|--0000-3333-555-66666-0000-3333-5-------0000-3333-555-66666-77777777-1111111111111111--|
D|--------------------------------5------------------------------------------------------|


[PLAY CHORUS]


  Outro
e|-------------------------------------------------------------|
B|----------------------------------5--5-----------------------|
G|--2222-5555-777-88888-2222-5555---7^-7^-2222-5555-777-88888--|
D|--2222-5555-777-88888-2222-5555-5-------2222-5555-777-88888--|
A|--0000-3333-555-66666-0000-3333-5-------0000-3333-555-66666--|
D|--------------------------------5----------------------------|

e|-------------------------------------------------------|
B|-------------------------------------------------------|
G|--9--[x8]--13--[x32]--16--[x16]--19--[x16]--21--[x32]--|
D|--9----------------------------------------------------|
A|--7--------11---------14---------17---------19---------|
D|-------------------------------------------------------|
            
Submit corrections

comments powered by Disqus
↑ Back to top | Gallows Tabs for Death Voices. Lyrics for acoustic guitar and electric guitar. 1 Tablatures and chords are parodies/interpretations of the original songs. You may use it for private study, scholarship, research or language learning purposes only