» » »

Gallows, Death Voices Bass tabs (ver.1)

Artists:  A B C D E F G H I J K L M N O P Q R S T U V W X Y Z # 

Death Voices Bass tabs (ver.1)

Gallows Tabs
Rating:
5/5 (1 vote)
Death Voices lessons Tabs too difficult? Try these video lessons and learn fast
                Gallows - Death voices


Drop D tuning (DADG)

Intro

G|-----------------------------------| x2 - rest between the
D|-----------------------------------|      repetitions
A|-----------------------------------|
D|--3-3-3-3-3-3-3-3-3-5-5-5-5-5-5-5--|


Verse

G|------------------------------------------------------| x2
D|------------------------------------------------------|
A|------------------------------------------------------|
D|--0--0-0--0--0--0-0--4-4-4-4-4-4-4-4-4-5-5-5-5-5-5-5--|


Pre-Chorus

G|-----------------------------------| x2
D|-----------------------------------|
A|-----------------------------------|
D|--3-3-3-3-3-3-3-3-2-2-2-2-2-2-2-2--|

G|-------------------------------------------------------------------|
D|-------------------------------------------------------------------|
A|-------------------------------------------------------------------|
D|--3-3-3-3-3-3-3-3-3-3-3-3-3-3-3-3-2-2-2-2-2-2-2-2-2-2-2-2-2-2-2-2--|


Chorus - aka fun part :)

G|-----------------------------------------------------------------| x4 - I leave it up to you 
D|-----------------------------------------------------------------|      to play or not those 0s...
A|--0--0--3-0-3-5-------5--3-3-(0)-------3-0-3-5-------3--2-2-(0)--|
D|----------------5---5------------3--3----------2---2-------------|


Intro

Verse

Pre-Chorus

Chorus


Bridge

G|-------------------------------------------------------------------|
D|-------------------------------------------------------------------|
A|--0-0-0-0-3-3-3-3-5-5-5-6-6-6-6-6-0-0-0-0-3-3-3-3-5-5-5-----6-6-5--|
D|--------------------------------------------------------5-5--------|

G|---------------------------------------------------------------------------|
D|---------------------------------------------------------------------------|
A|--0-0-0-0-3-3-3-3-5-5-5-6-6-6-6-6-7-7-7-7-7-7-7-7-11-11-11-11-11-11-11-11--|
D|---------------------------------------------------------------------------|


Rest during kickass gang chorus

Chorus


Outro

G|-------------------------------------------------------------------|
D|-------------------------------------------------------------------|
A|--0-0-0-0-3-3-3-3-5-5-5-6-6-6-6-6-0-0-0-0-3-3-3-3-5-5-5-----6-6-5--|
D|--------------------------------------------------------3-3--------|

G|-------------------------------------------------------------------------------------------------|
D|-------------------------------------------------------------------------------------------------|
A|-0-0-0-0-3-3-3-3-5-5-5-6-6-6-6-6-7-7-7-7-7-7-7-7-11-11-11-11-11-11-11-11-11-11-11-11-11-11-11-11-|
D|-------------------------------------------------------------------------------------------------|

G|-------------------------------------------------------------------------------------------------|
D|-------------------------------------------------------------------------------------------------|
A|-11-11-11-11-11-11-11-11-11-11-11-11-11-11-11-11-14-14-14-14-14-14-14-14-14-14-14-14-14-14-14-14-|
D|-------------------------------------------------------------------------------------------------|

G|-------------------------------------------------------------------------------------------------|
D|-------------------------------------------------------------------------------------------------|
A|-17-17-17-17-17-17-17-17-17-17-17-17-17-17-17-17-19-19-19-19-19-19-19-19-19-19-19-19-19-19-19-19-|
D|-------------------------------------------------------------------------------------------------|

G|------------------------------------------------------|
D|------------------------------------------------------|
A|--19-19-19-19-19-19-19-19-19-19-19-19-19-19-19-19-19--|
D|------------------------------------------------------|
            
Submit corrections

comments powered by Disqus
↑ Back to top | Gallows Bass for Death Voices. Lyrics for acoustic guitar and electric guitar. Tablatures and chords are parodies/interpretations of the original songs. You may use it for private study, scholarship, research or language learning purposes only