» » »

Gallows, Death Is Birth Bass tabs (ver.1)

Artists:  A B C D E F G H I J K L M N O P Q R S T U V W X Y Z # 

Death Is Birth Bass tabs (ver.1)

Gallows Tabs
 Rating:
4/5 (4 votes)
Death Is Birth lessons Tabs too difficult? Try these video lessons and learn fast
                Gallows - Death is Birth

Drop D


Verse:

G|------------------------------------------------------------| x4
D|------------------------------------------------------------|
A|------------------------------------------------------------|
D|--3---3-3-3-3--3--3--3--3-3-3--5-5-5-5-5-5-5-4-4-4-4-4-4-4--|


Chorus:

G|-------------------------------------------------------------------|
D|-------------------------------------------------------------------|
A|-------------------------------------------------------------------|
D|--8-8-8-8-8-8-8-8-8-8-8-8-8-8-8-8-7-7-7-7-7-7-7-7-7-7-7-7-7-7-7-7--|

G|-------------------------------------------------------------------| x2
D|-------------------------------------------------------------------|
A|-------------------------------------------------------------------|
D|--4-4-4-4-4-4-4-4-4-4-4-4-4-4-4-4-3-3-3-3-3-3-3-3-3-3-3-3-3-3-3-3--|


Pre-Verse:

G|--------------------------------------------------|
D|--------------------------------------------------|
A|--------------------------------------------------|
D|--3----3-3----3-3----3-3----3-3----3-3--3-3--3-3--|


2nd verse:

G|--------------------------------| x3
D|--------------------------------|
A|--------------------------------|
D|--3---3-3-3-3--3--3--3--3-3-3---|

G|-------------------------------|
D|-------------------------------|
A|-------------------------------|
D|--5-5-5-5-5-5-5-4-4-4-4-4-4-4--|


- Chorus

- Solo - play 2nd verse x2

- Bridge - play 2nd verse x2

- Chorus
            
Submit corrections

comments powered by Disqus
↑ Back to top | Gallows Bass for Death Is Birth. Lyrics for acoustic guitar and electric guitar. Tablatures and chords are parodies/interpretations of the original songs. You may use it for private study, scholarship, research or language learning purposes only