» » »

Gallows, Crucifucks Bass tabs (ver.1)

Artists:  A B C D E F G H I J K L M N O P Q R S T U V W X Y Z # 

Crucifucks Bass tabs (ver.1)

Gallows Tabs
 Rating:
4/5 (4 votes)
Crucifucks lessons Tabs too difficult? Try these video lessons and learn fast
1
                

Tuning: Drop D


  0:00
G|---------------------------------------------|
D|---------------------------------------------|
A|--6-5--3-5-3--------33-6-5--3-5-3------------|
D|-------------5-77-5---------------5-77-5-77--|

  0:10
G|----------------------------------------------|
D|----------------------------------------------|
A|-------33----------------33-----------3----5--|
D|--33-3----5-77-5-77-33-3----3----5------------|
  
  0:15
G|--------------------------------------|
D|--------------------------------------|
A|-------33----------------33-----------|
D|--33-3----5-77-5-77-33-3----5-77-5-7--|

  0:20
G|---------------------------------------------|
D|---------------------------------------------|
A|--6-5--3-5-3--------33-6-5--3-5-3------------|
D|-------------5-77-5---------------5-77-5-77--|

  0:30
G|----------------------------------------------|
D|----------------------------------------------|
A|-------33----------------33-----------3----5--|
D|--33-3----5-77-5-77-33-3----3----5------------|

  0:35
G|------------------------------------------|
D|------------------------------------------|
A|-------33----------------33---------------|
D|--33-3----5-77-5-77-33-3----7-7-7-7~------|

  0:39
G|--------------------------------------------------------------------------------|
D|--------------------------------------------------------------------------------|
A|--0-0-00-0-00-0-0-8-7-3-33-8-7-5-55-8-7-0-0-00-0-00-0-0-8-7-3-33-8-7-5-55-8-10--|
D|--------------------------------------------------------------------------------|

  1:05
G|---------------------------------------------------------|
D|---------------------------------------------------------|
A|--000-151515-000-141414-000-101010-8--7-3--8--7-5--8--7--|
D|---------------------------------------------------------|
                                                             
G|----------------------------------------------------------| 
D|----------------------------------------------------------|
A|--000-151515-000-141414-000-101010-8--7-3--8--7-5--8--10--|
D|----------------------------------------------------------|

  1:30
G|----------------------------------|
D|----------------------------------|
A|-------------------3~-----5~------|
D|--7-10-7-9-7-5-3-2----3-2----3-2--|

  1:48
G|---------------------------------------------|
D|---------------------------------------------|
A|-------------------3~-----5~-----------------|
D|--7-10-7-9-7-5-3-2----3-2----3-5-7~----------|
            
Submit corrections

comments powered by Disqus
↑ Back to top | Gallows Bass for Crucifucks. Lyrics for acoustic guitar and electric guitar. 1 Tablatures and chords are parodies/interpretations of the original songs. You may use it for private study, scholarship, research or language learning purposes only