» » »

Gallows, Cross Of Lorraine Tabs (ver.1)

Artists:  A B C D E F G H I J K L M N O P Q R S T U V W X Y Z # 

Cross Of Lorraine Tabs (ver.1)

Gallows Tabs
 Rating:
4/5 (4 votes)
Cross Of Lorraine lessons Tabs too difficult? Try these video lessons and learn fast
1
                -------------------------------------------------------------------------------
-------------------------------------------------------------------------------

DROP A#(Bb)

INTRO/RIFF:

 C|-------------------------------|--------|
 G|-------------------------------|-10-13--|
D#|---------------------7-5-------|-b12b15-|
A#|-7------5-----------------7-5--|--------|
 F|5--------------3-5-------------|--------|
A#|---8-7-5--5-3-0----0-----------|--------|                    

VERSE: (Palm-muted)

 C|-----------------------------------------------------------------------|
 G|-----------------------------------------------------------------------|
D#|-------------------333333333-3-3---------------------------------------|
A#|-00000000000000000-333333333-3-3-00000000000000000-0-0-----------------|
 F|-00000000000000000-111111111-1-1-00000000000000000-0-0-----------------|
A#|-00000000000000000---------------00000000000000000-0-0-----------------|
              (Then repeat and stay on the F#)

CHORUS:

 C|-------------------------------|
 G|-------------------------------|
D#|-15--9-10-14--12--7--7--7------|
A#|-15--9-10-14--12--7--7--7------|
 F|-13--7-8--12--10--5--5--5--X2--|
A#|-------------------------------|

RIFF:   (As Before)

VERSE:  (As Before)

CHORUS: (As Before, but twice)

BREAKDOWN/OUTRO:        

(o = Muted and O = Open)

 C|------------------------------------------------------|
 G|------------------------------------------------------|
D#|------------------------------------------------------|
A#|-------------------------------------7------------X2--|
 F|------------------------------------5--------5--------|
A#|-O-ooo-OoOoO-ooooooo-O-ooo-OoOoO-X2----8-7-5--5-3-----|

Then repeat again slower and with full 3 string chords.
            
Submit corrections

comments powered by Disqus
↑ Back to top | Gallows Tabs for Cross Of Lorraine. Lyrics for acoustic guitar and electric guitar. 1 Tablatures and chords are parodies/interpretations of the original songs. You may use it for private study, scholarship, research or language learning purposes only