>
 >
Come Friendly Bombs

Come Friendly Bombs Guitar Tabs

Gallows - Come Friendly Bombs chords, tabs, tablatures, lyrics

Guitar lessons | Add/correct | Request | Top 50 tabs Artists:  A B C D E F G H I J K L M N O P Q R S T U V W X Y Z 0-9

Come Friendly Bombs Guitar Tabs – Gallows

CD, Sheet music, Poster

Do you like Come Friendly Bombs? Share with your friends now
Tabs
-------------------------------------------------------------------------------
-------------------------------------------------------------------------------

Ok guys, this is my 1st tab. I love Gallows, but there was hardly any tabs
out there.
I hope to have more songs up soon, but you know.. im a lazy C**t.



Tuning:Drop D

Strumming is pretty simple to work out when you are listening to the song, so
hopefully my ammature tabbing skills dont screw you guys up.
p.s, when i say a chord x14, or something, dont trust that number too much, 
it could be one or two off, but inless you were dropped on your head as 
a baby you shouldnt have that much trouble figuiring out the correct timing.   


Intro:                                                                 
                                                                       
e|-------------------------------------------------------------------------|
B|-------------------------------------------------------------------------|
G|-----555555--------------555555------------555555--------------555555----|
D|-0-0-555555-3333-555-0-0-555555-666656-0-0-555555-3333-555-0-0-555555----|
A|-0-0-333333-3333-555-0-0-333333-666656-0-0-333333-3333-555-0-0-333333----|
D|-0-0--------3333-555-0-0--------666656-0-0--------3333-555-0-0-----------|


Verse 1 
pretty much the same stuff as the intro, except it plays the 1s bar of the
intro 3 times, then plays the 2nd bar and guitar 2 does the little things,
(sorry im not good at guitar speak :p) 

Guitar 1:
       'Black knuckles and broken teeth..'
e|----------------------  -----------------------------------------------|
B|----------------------  -----------------------------------------------|
G|-----555555-----------  -----555555------------------------------------|
D|-0-0-555555-3333-555--x3-0-0-555555-666656-----------------------------| x2
A|-0-0-333333-3333-555--  -0-0-333333-666656-----------------------------|
D|-0-0--------3333-555--  -0-0--------666656-----------------------------|
       'Do ya wanna go? I wanna go!..'
e|----   ------  ---------   --------------------------------------------|
B|----   ------  ---------   --------------------------------------------|
G|----   ------  ---------   --------------------------------------------|
D|-8-8   ----10  ----11-11   --------------------------------------------|
A|-8-8x12----10x2----11-11x14--------------------------------------------|
D|-8-8   ----10  ----11-11   --------------------------------------------|
       'Black knuckes and broken teeth..'
e|-----------------------------------------------------------------------|
B|-----------------------------------------------------------------------|
G|-----555555------------------------------------------------------------|
D|-0-0-555555-3333-555---------------------------------------------------| x2
A|-0-0-333333-3333-555---------------------------------------------------|
D|-0-0--------3333-555---------------------------------------------------|
        'Do ya wanna go? I wanna go!..'
e|----   ------  ---------   --------------------------------------------|
B|----   ------  ---------   --------------------------------------------|
G|----   ------  ---------   --------------------------------------------|
D|-8-8   ----10  ----11-11   --------------------------------------------|
A|-8-8x12----10x2----11-11x14--------------------------------------------|
D|-8-8   ----10  ----11-11   --------------------------------------------|

Guitar 2:
Im not entirely sure whether this guy plays the first 2 chords of the verse
as well as his other stuff, but ill assume he doesnt for this tab.
    
     'Black knuckles and broken teeth..' 
    1st bar         2nd bar                3rd and 4th bar
e|-----------------------------------------------------------------------|
B|-----------------------------------------------------------------------|
G|-----555555---------555555-3333-888--------555555----------------------|x2
D|-----555555---------555555-2222-666--------555555----------------------|
A|-----333333---------333333-----------------333333----------------------|
D|-----------------------------------------------------------------------|
      'Do ya wanna go? I wanna go!..'
e|--   ----------   -----------------------------------------------------|
B|--   ----------   -----------------------------------------------------|
G|-9     --10---9   -----------------------------------------------------|
D|-9 x14 --10---9x14-----------------------------------------------------|
A|-7(ish)--8----7   -----------------------------------------------------|
D|--     --------   -----------------------------------------------------|
     'Black knuckles and broken teeth..'
e|-----------------------------------------------------------------------|
B|-----------------------------------------------------------------------|
G|----555555----------555555---------------------------------------------|
D|----555555----------555555---------------------------------------------|
A|----333333----------333333---------------------------------------------|
D|-----------------------------------------------------------------------|
      'Do ya wanna go? I wanna go!..'
e|--   ----------   -----------------------------------------------------|
B|--   ----------   -----------------------------------------------------|
G|-9     --10---9   -----------------------------------------------------|
D|-9 x14 --10---9x14-----------------------------------------------------|
A|-7(ish)--8----7   -----------------------------------------------------|
D|--     --------   -----------------------------------------------------|

Chorus:

Guitar 1: 
      'We're not the same ones..' 
e|----   ----------------------------------------------------------------|
B|----   ----------------------------------------------------------------|
G|----   ----------------------------------------------------------------|
D|-0-0   --6-66-65-3-33333-5-55555--1-11113------------------------------|x4
A|-0-0x13--6-66-65-3-33333-5-55555--1-11113------------------------------|
D|-0-0   --6-66-65-3 33333-5-55555--1-11113------------------------------|

Guitar 2
      'We're not the same ones..' 
e|----   ----------------------------------------------------------------|
B|----   ----------------------------------------------------------------|
G|-5-5   ----------------------------------------------------------------|
D|-5-5x13----------------------------------------------------------------|x2
A|-3-3   ----------------------------------------------------------------|
D|----   ----------------------------------------------------------------|

e|----   ----------------------------------------------------------------|
B|----   ----------------------------------------------------------------|
G|-5-5   --12-12-12--10-10-10-9-9-9-9-8-8-8-10---------------------------|
D|-5-5x13----------------------------------------------------------------|x2
A|-3-3   ----------------------------------------------------------------|
D|----   ----------------------------------------------------------------|

Verse 2 - (same as verse 1)
Chorus (same as.. before)

Brdige (?) (starts at aprox 2.30 min in, after 2nd chorus)

Part 1

Guitar 1
(this come in after one bar of guitar 2 palying the 1st chord,
I made the white lines match corrospond for timing purposes.)

Guitar 1:

e|---------------------  ------  ------  ----  --------------------------|
B|---------------------  ------  ------  ----  --------------------------|
G|---------------------  ------  ------  ----  --------------------------|
D|--------------------0  -----6  -----3  ---1  --------------------------|x2
A|--------------------0x8-----6x8-----3x8---1x8--------------------------|
D|--------------------0  -----6  -----3  ---1  --------------------------|

Guitar 2:

e|------  ----  -------  ------  ------  ----  --------------------------|
B|------  ----  -------  ------  ------  ----  --------------------------|
G|---7-7  -7-7  ----7-7  -13-13  -10-10  -6-6  --------------------------|
D|---7-7x8-7-7x8----7-7x8-13-13x8-10-10x8-6-6x8--------------------------|x2
A|---5-5  -5-5  ----5-5  -11-11  - 8- 8  -4-4  --------------------------|
D|------  ----  -------  ------  ------  ----  --------------------------|

Part 2

Guitar 1:
(mostly just plays the same chord, the stummings easily figured out when
you listen to the song, tabbing it would probably just confuse you, so i 
will give you the 2 chords involved. The 2nd chord is played when
the words 'You and me! You and me!' are sang/shouted :p and it 
is palm muted) 
                             x
e|-----------------------------------------------------------------------|
B|-----------------------------------------------------------------------|
G|-----------------------------------------------------------------------|
D|-0-------------------------9-------------------------------------------|
A|-0-------------------------9-------------------------------------------|
D|-0-------------------------9-------------------------------------------|

Guitar 2:

e|-----------------------------------------------------------------------|
B|-----------------------------------------------------------------------|
G|-13-13----11-11---14-14------------------------------------------------|
D|-12-12----10-10---13-13------------------------------------------------|x5
A|-----------------------------------------------------------------------|
D|-----------------------------------------------------------------------|

(guitar 2 plays nothing when the words 'You and me! You and me!' are shouted)
then

e|-----------------------------------------------------------------------|
B|-----------------------------------------------------------------------|
G|-13-13----15-15---16-16------------------------------------------------|
D|-12-12----14-14---14-14------------------------------------------------|
A|-----------------------------------------------------------------------|
D|-----------------------------------------------------------------------|
dont know how many times this is played, about 6 or 7 but yeah once again.. 
just listen! There is 1 bar where nothing is played for guitar 2, but there 
is no lyircs) 



Well thats bout it from me, hope you liked it, and i hope it wasnt to shit 
for you all. Timing can be a bit hard to put into a tab, but listening 
solves alot of problems hehe. 

well have fun, hope to have more gallows tabs up soon. 


| /  slide up
| \  slide down
| h  hammer-on
| p  pull-off
| ~  vibrato
| +  harmonic
| x  Mute note
===============================================================================





Comments


Popular Gallows tabs & chords
Staring At The Rude Bois 2 Bass Tabs
The Riverbed 2 Bass Tabs
Will Someone Shoot That Fucking Snake Bass Tabs
Crucifucks Tabs
In The Belly Of A Shark 5 Tabs
Just Because You Sleep Next To Me Doesn't Mean You're Safe 1 Tabs
London Is The Reason Tabs
Rolling With The Punches Intro Tabs
Rolling With The PunchesIntro Tabs
The Vulture Act I Ukulele


Song lyrics



↑ Back to top | Tablatures and chords are parodies/interpretations of the original songs. You may use it for private study, scholarship, research or language learning purposes only
© 2014 AZChords.com Contact us | Privacy policy | DMCA | Add/correct tabs | Request tabs | Top 50 tabs